  0
SECTION
  2
HEADER
  9
$ACADVER
  1
AC1015
  9
$ACADMAINTVER
 70
     6
  9
$DWGCODEPAGE
  3
ANSI_1252
  9
$INSBASE
 10
0.0
 20
0.0
 30
0.0
  9
$EXTMIN
 10
-0.5
 20
-0.5
 30
-0.5
  9
$EXTMAX
 10
5.0
 20
5.0
 30
5.0
  9
$LIMMIN
 10
-0.5
 20
-0.5
  9
$LIMMAX
 10
5.0
 20
5.0
  9
$ORTHOMODE
 70
     0
  9
$REGENMODE
 70
     1
  9
$FILLMODE
 70
     1
  9
$QTEXTMODE
 70
     0
  9
$MIRRTEXT
 70
     1
  9
$LTSCALE
 40
1.0
  9
$ATTMODE
 70
     1
  9
$TEXTSIZE
 40
0.2
  9
$TRACEWID
 40
0.05
  9
$TEXTSTYLE
  7
Standard
  9
$CLAYER
  8
0
  9
$CELTYPE
  6
ByLayer
  9
$CECOLOR
 62
   256
  9
$CELTSCALE
 40
1.0
  9
$DISPSILH
 70
     0
  9
$DIMSCALE
 40
1.0
  9
$DIMASZ
 40
0.18
  9
$DIMEXO
 40
0.0625
  9
$DIMDLI
 40
0.38
  9
$DIMRND
 40
0.0
  9
$DIMDLE
 40
0.0
  9
$DIMEXE
 40
0.18
  9
$DIMTP
 40
0.0
  9
$DIMTM
 40
0.0
  9
$DIMTXT
 40
0.18
  9
$DIMCEN
 40
0.09
  9
$DIMTSZ
 40
0.0
  9
$DIMTOL
 70
     0
  9
$DIMLIM
 70
     0
  9
$DIMTIH
 70
     1
  9
$DIMTOH
 70
     1
  9
$DIMSE1
 70
     0
  9
$DIMSE2
 70
     0
  9
$DIMTAD
 70
     0
  9
$DIMZIN
 70
     0
  9
$DIMBLK
  1

  9
$DIMASO
 70
     1
  9
$DIMSHO
 70
     1
  9
$DIMPOST
  1

  9
$DIMAPOST
  1

  9
$DIMALT
 70
     0
  9
$DIMALTD
 70
     2
  9
$DIMALTF
 40
25.4
  9
$DIMLFAC
 40
1.0
  9
$DIMTOFL
 70
     0
  9
$DIMTVP
 40
0.0
  9
$DIMTIX
 70
     0
  9
$DIMSOXD
 70
     0
  9
$DIMSAH
 70
     0
  9
$DIMBLK1
  1

  9
$DIMBLK2
  1

  9
$DIMSTYLE
  2
Standard
  9
$DIMCLRD
 70
     0
  9
$DIMCLRE
 70
     0
  9
$DIMCLRT
 70
     0
  9
$DIMTFAC
 40
1.0
  9
$DIMGAP
 40
0.09
  9
$DIMJUST
 70
     0
  9
$DIMSD1
 70
     0
  9
$DIMSD2
 70
     0
  9
$DIMTOLJ
 70
     1
  9
$DIMTZIN
 70
     0
  9
$DIMALTZ
 70
     0
  9
$DIMALTTZ
 70
     0
  9
$DIMUPT
 70
     0
  9
$DIMDEC
 70
     4
  9
$DIMTDEC
 70
     4
  9
$DIMALTU
 70
     2
  9
$DIMALTTD
 70
     2
  9
$DIMTXSTY
  7
Standard
  9
$DIMAUNIT
 70
     0
  9
$DIMADEC
 70
     0
  9
$DIMALTRND
 40
0.0
  9
$DIMAZIN
 70
     0
  9
$DIMDSEP
 70
    46
  9
$DIMATFIT
 70
     3
  9
$DIMFRAC
 70
     0
  9
$DIMLDRBLK
  1

  9
$DIMLUNIT
 70
     2
  9
$DIMLWD
 70
    -2
  9
$DIMLWE
 70
    -2
  9
$DIMTMOVE
 70
     0
  9
$LUNITS
 70
     2
  9
$LUPREC
 70
     4
  9
$SKETCHINC
 40
0.1
  9
$FILLETRAD
 40
0.5
  9
$AUNITS
 70
     0
  9
$AUPREC
 70
     0
  9
$MENU
  1
.
  9
$ELEVATION
 40
0.0
  9
$PELEVATION
 40
0.0
  9
$THICKNESS
 40
0.0
  9
$LIMCHECK
 70
     0
  9
$CHAMFERA
 40
0.5
  9
$CHAMFERB
 40
0.5
  9
$CHAMFERC
 40
1.0
  9
$CHAMFERD
 40
0.0
  9
$SKPOLY
 70
     0
  9
$TDCREATE
 40
2455075.768832824
  9
$TDUCREATE
 40
2455075.685499491
  9
$TDUPDATE
 40
2455075.768832836
  9
$TDUUPDATE
 40
2455075.685499502
  9
$TDINDWG
 40
0.0000000116
  9
$TDUSRTIMER
 40
0.0000000116
  9
$USRTIMER
 70
     1
  9
$ANGBASE
 50
0.0
  9
$ANGDIR
 70
     0
  9
$PDMODE
 70
     0
  9
$PDSIZE
 40
0.0
  9
$PLINEWID
 40
0.0
  9
$SPLFRAME
 70
     0
  9
$SPLINETYPE
 70
     6
  9
$SPLINESEGS
 70
     8
  9
$HANDSEED
  5
187
  9
$SURFTAB1
 70
     6
  9
$SURFTAB2
 70
     6
  9
$SURFTYPE
 70
     6
  9
$SURFU
 70
     6
  9
$SURFV
 70
     6
  9
$UCSBASE
  2

  9
$UCSNAME
  2

  9
$UCSORG
 10
0.0
 20
0.0
 30
0.0
  9
$UCSXDIR
 10
1.0
 20
0.0
 30
0.0
  9
$UCSYDIR
 10
0.0
 20
1.0
 30
0.0
  9
$UCSORTHOREF
  2

  9
$UCSORTHOVIEW
 70
     0
  9
$UCSORGTOP
 10
0.0
 20
0.0
 30
0.0
  9
$UCSORGBOTTOM
 10
0.0
 20
0.0
 30
0.0
  9
$UCSORGLEFT
 10
0.0
 20
0.0
 30
0.0
  9
$UCSORGRIGHT
 10
0.0
 20
0.0
 30
0.0
  9
$UCSORGFRONT
 10
0.0
 20
0.0
 30
0.0
  9
$UCSORGBACK
 10
0.0
 20
0.0
 30
0.0
  9
$PUCSBASE
  2

  9
$PUCSNAME
  2

  9
$PUCSORG
 10
0.0
 20
0.0
 30
0.0
  9
$PUCSXDIR
 10
1.0
 20
0.0
 30
0.0
  9
$PUCSYDIR
 10
0.0
 20
1.0
 30
0.0
  9
$PUCSORTHOREF
  2

  9
$PUCSORTHOVIEW
 70
     0
  9
$PUCSORGTOP
 10
0.0
 20
0.0
 30
0.0
  9
$PUCSORGBOTTOM
 10
0.0
 20
0.0
 30
0.0
  9
$PUCSORGLEFT
 10
0.0
 20
0.0
 30
0.0
  9
$PUCSORGRIGHT
 10
0.0
 20
0.0
 30
0.0
  9
$PUCSORGFRONT
 10
0.0
 20
0.0
 30
0.0
  9
$PUCSORGBACK
 10
0.0
 20
0.0
 30
0.0
  9
$USERI1
 70
     0
  9
$USERI2
 70
     0
  9
$USERI3
 70
     0
  9
$USERI4
 70
     0
  9
$USERI5
 70
     0
  9
$USERR1
 40
0.0
  9
$USERR2
 40
0.0
  9
$USERR3
 40
0.0
  9
$USERR4
 40
0.0
  9
$USERR5
 40
0.0
  9
$WORLDVIEW
 70
     1
  9
$SHADEDGE
 70
     3
  9
$SHADEDIF
 70
    70
  9
$TILEMODE
 70
     0
  9
$MAXACTVP
 70
    64
  9
$PINSBASE
 10
0.0
 20
0.0
 30
0.0
  9
$PLIMCHECK
 70
     0
  9
$PEXTMIN
 10
-0.5
 20
-0.5
 30
-0.5
  9
$PEXTMAX
 10
5.0
 20
5.0
 30
5.0
  9
$PLIMMIN
 10
0.0
 20
0.0
  9
$PLIMMAX
 10
9.6
 20
8.04
  9
$UNITMODE
 70
     0
  9
$VISRETAIN
 70
     1
  9
$PLINEGEN
 70
     0
  9
$PSLTSCALE
 70
     1
  9
$TREEDEPTH
 70
  3020
  9
$CMLSTYLE
  2
Standard
  9
$CMLJUST
 70
     0
  9
$CMLSCALE
 40
1.0
  9
$PROXYGRAPHICS
 70
     1
  9
$MEASUREMENT
 70
     1
  9
$CELWEIGHT
370
    -1
  9
$ENDCAPS
280
     0
  9
$JOINSTYLE
280
     0
  9
$LWDISPLAY
290
     0
  9
$INSUNITS
 70
     4
  9
$HYPERLINKBASE
  1

  9
$STYLESHEET
  1

  9
$XEDIT
290
     1
  9
$CEPSNTYPE
380
     0
  9
$PSTYLEMODE
290
     1
  9
$FINGERPRINTGUID
  2
{71E97463-569B-5522-41A0-46221FE347B9}
  9
$VERSIONGUID
  2
{FAEB1C32-E019-11D5-929B-00C0DF256EC4}
  9
$EXTNAMES
290
     1
  9
$PSVPSCALE
 40
0.0
  9
$OLESTARTUP
290
     0
  0
ENDSEC
  0
SECTION
  2
CLASSES
  0
CLASS
  1
ACDBDICTIONARYWDFLT
  2
AcDbDictionaryWithDefault
  3
ObjectDBX Classes
 90
        0
280
     0
281
     0
  0
CLASS
  1
ACDBPLACEHOLDER
  2
AcDbPlaceHolder
  3
ObjectDBX Classes
 90
        0
280
     0
281
     0
  0
CLASS
  1
LAYOUT
  2
AcDbLayout
  3
ObjectDBX Classes
 90
        0
280
     0
281
     0
  0
ENDSEC
  0
SECTION
  2
TABLES
  0
TABLE
  2
VPORT
  5
8
330
0
100
AcDbSymbolTable
 70
    17
  0
VPORT
  5
29
330
8
100
AcDbSymbolTableRecord
100
AcDbViewportTableRecord
  2
DUMMY
 70
     0
 10
0.0
 20
0.0
 11
1.0
 21
1.0
 12
10.429907
 22
4.5
 13
0.0
 23
0.0
 14
0.5
 24
0.5
 15
0.5
 25
0.5
 16
0.0
 26
0.0
 36
1.0
 17
0.0
 27
0.0
 37
0.0
 40
9.0
 41
1.972973
 42
50.0
 43
0.0
 44
0.0
 50
0.0
 51
0.0
 71
     0
 72
   100
 73
     1
 74
     3
 75
     0
 76
     0
 77
     0
 78
     0
281
     0
 65
     1
110
0.0
120
0.0
130
0.0
111
1.0
121
0.0
131
0.0
112
0.0
122
1.0
132
0.0
 79
     0
146
0.0
  0
VPORT
  5
177
330
8
100
AcDbSymbolTableRecord
100
AcDbViewportTableRecord
  2
*ACTIVE
 70
     0
 10
0.0
 20
0.0
 11
1.0
 21
1.0
 12
0.0
 22
0.0
 13
0.0
 23
0.0
 14
0.5
 24
0.5
 15
0.5
 25
0.5
 16
0.7188730927569434
 26
-0.5850486126764432
 36
0.3754192287502549
 17
0.0
 27
0.0
 37
0.0
 40
1678.442937
 41
0.010579
 42
50.0
 43
828.582589
 44
-828.582589
 50
0.0
 51
0.0
 71
     0
 72
   100
 73
     1
 74
     3
 75
     0
 76
     0
 77
     0
 78
     0
281
     0
 65
     1
110
0.0
120
0.0
130
0.0
111
1.0
121
0.0
131
0.0
112
0.0
122
1.0
132
0.0
 79
     0
146
0.0
  0
VPORT
  5
178
330
8
100
AcDbSymbolTableRecord
100
AcDbViewportTableRecord
  2
L1
 70
     0
 10
0.0
 20
0.0
 11
1.0
 21
1.0
 12
0.0
 22
0.0
 13
0.0
 23
0.0
 14
0.5
 24
0.5
 15
0.5
 25
0.5
 16
0.7188730927569434
 26
-0.5850486126764432
 36
0.3754192287502549
 17
0.0
 27
0.0
 37
0.0
 40
1678.442937
 41
0.010579
 42
50.0
 43
828.582589
 44
-828.582589
 50
0.0
 51
0.0
 71
     0
 72
   100
 73
     1
 74
     3
 75
     0
 76
     0
 77
     0
 78
     0
281
     0
 65
     1
110
0.0
120
0.0
130
0.0
111
1.0
121
0.0
131
0.0
112
0.0
122
1.0
132
0.0
 79
     0
146
0.0
  0
VPORT
  5
179
330
8
100
AcDbSymbolTableRecord
100
AcDbViewportTableRecord
  2
L2
 70
     0
 10
0.0
 20
0.0
 11
0.5
 21
1.0
 12
0.0
 22
0.0
 13
0.0
 23
0.0
 14
0.5
 24
0.5
 15
0.5
 25
0.5
 16
0.0
 26
-1.0
 36
0.0
 17
0.0
 27
0.0
 37
0.0
 40
1616.746515
 41
0.010983
 42
50.0
 43
837.089729
 44
-837.089729
 50
0.0
 51
0.0
 71
     0
 72
   100
 73
     1
 74
     3
 75
     0
 76
     0
 77
     0
 78
     0
281
     0
 65
     1
110
0.0
120
0.0
130
0.0
111
1.0
121
0.0
131
0.0
112
0.0
122
1.0
132
0.0
 79
     0
146
0.0
  0
VPORT
  5
17A
330
8
100
AcDbSymbolTableRecord
100
AcDbViewportTableRecord
  2
L2
 70
     0
 10
0.5
 20
0.0
 11
1.0
 21
1.0
 12
0.0
 22
0.0
 13
0.0
 23
0.0
 14
0.5
 24
0.5
 15
0.5
 25
0.5
 16
1.0
 26
0.0
 36
0.0
 17
0.0
 27
0.0
 37
0.0
 40
1616.746515
 41
0.010983
 42
50.0
 43
816.177137
 44
-816.177137
 50
0.0
 51
0.0
 71
     0
 72
   100
 73
     1
 74
     3
 75
     0
 76
     0
 77
     0
 78
     0
281
     0
 65
     1
110
0.0
120
0.0
130
0.0
111
1.0
121
0.0
131
0.0
112
0.0
122
1.0
132
0.0
 79
     0
146
0.0
  0
VPORT
  5
17B
330
8
100
AcDbSymbolTableRecord
100
AcDbViewportTableRecord
  2
L3
 70
     0
 10
0.0
 20
0.5
 11
1.0
 21
1.0
 12
0.0
 22
0.0
 13
0.0
 23
0.0
 14
0.5
 24
0.5
 15
0.5
 25
0.5
 16
0.0
 26
0.0
 36
1.0
 17
0.0
 27
0.0
 37
0.0
 40
225.191429
 41
0.078852
 42
50.0
 43
808.373257
 44
-808.373257
 50
0.0
 51
0.0
 71
     0
 72
   100
 73
     1
 74
     3
 75
     0
 76
     0
 77
     0
 78
     0
281
     0
 65
     1
110
0.0
120
0.0
130
0.0
111
1.0
121
0.0
131
0.0
112
0.0
122
1.0
132
0.0
 79
     0
146
0.0
  0
VPORT
  5
17C
330
8
100
AcDbSymbolTableRecord
100
AcDbViewportTableRecord
  2
L3
 70
     0
 10
0.0
 20
0.0
 11
1.0
 21
0.5
 12
0.0
 22
0.0
 13
0.0
 23
0.0
 14
0.5
 24
0.5
 15
0.5
 25
0.5
 16
0.0
 26
-1.0
 36
0.0
 17
0.0
 27
0.0
 37
0.0
 40
1616.746515
 41
0.010983
 42
50.0
 43
837.089729
 44
-837.089729
 50
0.0
 51
0.0
 71
     0
 72
   100
 73
     1
 74
     3
 75
     0
 76
     0
 77
     0
 78
     0
281
     0
 65
     1
110
0.0
120
0.0
130
0.0
111
1.0
121
0.0
131
0.0
112
0.0
122
1.0
132
0.0
 79
     0
146
0.0
  0
VPORT
  5
17D
330
8
100
AcDbSymbolTableRecord
100
AcDbViewportTableRecord
  2
L4
 70
     0
 10
0.0
 20
0.5
 11
0.5
 21
1.0
 12
0.0
 22
0.0
 13
0.0
 23
0.0
 14
0.5
 24
0.5
 15
0.5
 25
0.5
 16
0.0
 26
0.0
 36
1.0
 17
0.0
 27
0.0
 37
0.0
 40
225.191429
 41
0.078852
 42
50.0
 43
808.373257
 44
-808.373257
 50
0.0
 51
0.0
 71
     0
 72
   100
 73
     1
 74
     3
 75
     0
 76
     0
 77
     0
 78
     0
281
     0
 65
     1
110
0.0
120
0.0
130
0.0
111
1.0
121
0.0
131
0.0
112
0.0
122
1.0
132
0.0
 79
     0
146
0.0
  0
VPORT
  5
17E
330
8
100
AcDbSymbolTableRecord
100
AcDbViewportTableRecord
  2
L4
 70
     0
 10
0.0
 20
0.0
 11
0.5
 21
0.5
 12
0.0
 22
0.0
 13
0.0
 23
0.0
 14
0.5
 24
0.5
 15
0.5
 25
0.5
 16
0.0
 26
-1.0
 36
0.0
 17
0.0
 27
0.0
 37
0.0
 40
1616.746515
 41
0.010983
 42
50.0
 43
837.089729
 44
-837.089729
 50
0.0
 51
0.0
 71
     0
 72
   100
 73
     1
 74
     3
 75
     0
 76
     0
 77
     0
 78
     0
281
     0
 65
     1
110
0.0
120
0.0
130
0.0
111
1.0
121
0.0
131
0.0
112
0.0
122
1.0
132
0.0
 79
     0
146
0.0
  0
VPORT
  5
17F
330
8
100
AcDbSymbolTableRecord
100
AcDbViewportTableRecord
  2
L4
 70
     0
 10
0.5
 20
0.0
 11
1.0
 21
0.5
 12
0.0
 22
0.0
 13
0.0
 23
0.0
 14
0.5
 24
0.5
 15
0.5
 25
0.5
 16
1.0
 26
0.0
 36
0.0
 17
0.0
 27
0.0
 37
0.0
 40
1616.746515
 41
0.010983
 42
50.0
 43
816.177137
 44
-816.177137
 50
0.0
 51
0.0
 71
     0
 72
   100
 73
     1
 74
     3
 75
     0
 76
     0
 77
     0
 78
     0
281
     0
 65
     1
110
0.0
120
0.0
130
0.0
111
1.0
121
0.0
131
0.0
112
0.0
122
1.0
132
0.0
 79
     0
146
0.0
  0
VPORT
  5
180
330
8
100
AcDbSymbolTableRecord
100
AcDbViewportTableRecord
  2
L4
 70
     0
 10
0.5
 20
0.5
 11
1.0
 21
1.0
 12
0.0
 22
0.0
 13
0.0
 23
0.0
 14
0.5
 24
0.5
 15
0.5
 25
0.5
 16
0.5773502691896258
 26
-0.5773502691896258
 36
0.5773502691896258
 17
0.0
 27
0.0
 37
0.0
 40
1589.487962
 41
0.011171
 42
50.0
 43
828.286382
 44
-828.286382
 50
0.0
 51
0.0
 71
     0
 72
   100
 73
     1
 74
     3
 75
     0
 76
     0
 77
     0
 78
     0
281
     0
 65
     1
110
0.0
120
0.0
130
0.0
111
1.0
121
0.0
131
0.0
112
0.0
122
1.0
132
0.0
 79
     0
146
0.0
  0
VPORT
  5
181
330
8
100
AcDbSymbolTableRecord
100
AcDbViewportTableRecord
  2
L6
 70
     0
 10
0.0
 20
0.5
 11
0.333333
 21
1.0
 12
0.0
 22
0.0
 13
0.0
 23
0.0
 14
0.5
 24
0.5
 15
0.5
 25
0.5
 16
0.7188730927569434
 26
-0.5850486126764432
 36
0.3754192287502549
 17
0.0
 27
0.0
 37
0.0
 40
1678.442937
 41
0.010579
 42
50.0
 43
828.582589
 44
-828.582589
 50
0.0
 51
0.0
 71
     0
 72
   100
 73
     1
 74
     3
 75
     0
 76
     0
 77
     0
 78
     0
281
     0
 65
     1
110
0.0
120
0.0
130
0.0
111
1.0
121
0.0
131
0.0
112
0.0
122
1.0
132
0.0
 79
     0
146
0.0
  0
VPORT
  5
182
330
8
100
AcDbSymbolTableRecord
100
AcDbViewportTableRecord
  2
L6
 70
     0
 10
0.0
 20
0.0
 11
0.333333
 21
0.5
 12
0.0
 22
0.0
 13
0.0
 23
0.0
 14
0.5
 24
0.5
 15
0.5
 25
0.5
 16
-1.0
 26
0.0
 36
0.0
 17
0.0
 27
0.0
 37
0.0
 40
1616.746515
 41
0.010983
 42
50.0
 43
816.177137
 44
-816.177137
 50
0.0
 51
0.0
 71
     0
 72
   100
 73
     1
 74
     3
 75
     0
 76
     0
 77
     0
 78
     0
281
     0
 65
     1
110
0.0
120
0.0
130
0.0
111
1.0
121
0.0
131
0.0
112
0.0
122
1.0
132
0.0
 79
     0
146
0.0
  0
VPORT
  5
183
330
8
100
AcDbSymbolTableRecord
100
AcDbViewportTableRecord
  2
L6
 70
     0
 10
0.333333
 20
0.5
 11
0.666667
 21
1.0
 12
0.0
 22
0.0
 13
0.0
 23
0.0
 14
0.5
 24
0.5
 15
0.5
 25
0.5
 16
0.0
 26
0.0
 36
1.0
 17
0.0
 27
0.0
 37
0.0
 40
225.191429
 41
0.078852
 42
50.0
 43
808.373257
 44
-808.373257
 50
0.0
 51
0.0
 71
     0
 72
   100
 73
     1
 74
     3
 75
     0
 76
     0
 77
     0
 78
     0
281
     0
 65
     1
110
0.0
120
0.0
130
0.0
111
1.0
121
0.0
131
0.0
112
0.0
122
1.0
132
0.0
 79
     0
146
0.0
  0
VPORT
  5
184
330
8
100
AcDbSymbolTableRecord
100
AcDbViewportTableRecord
  2
L6
 70
     0
 10
0.333333
 20
0.0
 11
0.666667
 21
0.5
 12
0.0
 22
0.0
 13
0.0
 23
0.0
 14
0.5
 24
0.5
 15
0.5
 25
0.5
 16
0.0
 26
-1.0
 36
0.0
 17
0.0
 27
0.0
 37
0.0
 40
1616.746515
 41
0.010983
 42
50.0
 43
837.089729
 44
-837.089729
 50
0.0
 51
0.0
 71
     0
 72
   100
 73
     1
 74
     3
 75
     0
 76
     0
 77
     0
 78
     0
281
     0
 65
     1
110
0.0
120
0.0
130
0.0
111
1.0
121
0.0
131
0.0
112
0.0
122
1.0
132
0.0
 79
     0
146
0.0
  0
VPORT
  5
185
330
8
100
AcDbSymbolTableRecord
100
AcDbViewportTableRecord
  2
L6
 70
     0
 10
0.666667
 20
0.5
 11
1.0
 21
1.0
 12
0.0
 22
0.0
 13
0.0
 23
0.0
 14
0.5
 24
0.5
 15
0.5
 25
0.5
 16
0.5773502691896258
 26
-0.5773502691896258
 36
0.5773502691896258
 17
0.0
 27
0.0
 37
0.0
 40
1589.487962
 41
0.011171
 42
50.0
 43
828.286382
 44
-828.286382
 50
0.0
 51
0.0
 71
     0
 72
   100
 73
     1
 74
     3
 75
     0
 76
     0
 77
     0
 78
     0
281
     0
 65
     1
110
0.0
120
0.0
130
0.0
111
1.0
121
0.0
131
0.0
112
0.0
122
1.0
132
0.0
 79
     0
146
0.0
  0
VPORT
  5
186
330
8
100
AcDbSymbolTableRecord
100
AcDbViewportTableRecord
  2
L6
 70
     0
 10
0.666667
 20
0.0
 11
1.0
 21
0.5
 12
0.0
 22
0.0
 13
0.0
 23
0.0
 14
0.5
 24
0.5
 15
0.5
 25
0.5
 16
1.0
 26
0.0
 36
0.0
 17
0.0
 27
0.0
 37
0.0
 40
1616.746515
 41
0.010983
 42
50.0
 43
816.177137
 44
-816.177137
 50
0.0
 51
0.0
 71
     0
 72
   100
 73
     1
 74
     3
 75
     0
 76
     0
 77
     0
 78
     0
281
     0
 65
     1
110
0.0
120
0.0
130
0.0
111
1.0
121
0.0
131
0.0
112
0.0
122
1.0
132
0.0
 79
     0
146
0.0
  0
ENDTAB
  0
TABLE
  2
LTYPE
  5
5
330
0
100
AcDbSymbolTable
 70
     7
  0
LTYPE
  5
14
330
5
100
AcDbSymbolTableRecord
100
AcDbLinetypeTableRecord
  2
ByBlock
 70
     0
  3

 72
    65
 73
     0
 40
0.0
  0
LTYPE
  5
15
330
5
100
AcDbSymbolTableRecord
100
AcDbLinetypeTableRecord
  2
ByLayer
 70
     0
  3

 72
    65
 73
     0
 40
0.0
  0
LTYPE
  5
16
330
5
100
AcDbSymbolTableRecord
100
AcDbLinetypeTableRecord
  2
Continuous
 70
     0
  3
Solid line
 72
    65
 73
     0
 40
0.0
  0
LTYPE
  5
2B
330
5
100
AcDbSymbolTableRecord
100
AcDbLinetypeTableRecord
  2
DASHED
 70
     0
  3
__ __ __ __ __ __ __ __ __
 72
    65
 73
     2
 40
25.72
 49
12.86
 74
     4
 75
     0
340
0
 46
0.0
 50
0.0
 44
0.0
 45
0.0
 49
-12.86
 74
     4
 75
     0
340
0
 46
0.0
 50
0.0
 44
0.0
 45
0.0
  0
LTYPE
  5
2C
330
5
100
AcDbSymbolTableRecord
100
AcDbLinetypeTableRecord
  2
HIDDEN
 70
     0
  3
_ _ _ _ _ _ _ _ _ _ _ _ _ _ _
 72
    65
 73
     2
 40
0.5
 49
0.25
 74
     4
 75
     0
340
0
 46
0.0
 50
0.0
 44
0.0
 45
0.0
 49
-0.25
 74
     4
 75
     0
340
0
 46
0.0
 50
0.0
 44
0.0
 45
0.0
  0
LTYPE
  5
2D
330
5
100
AcDbSymbolTableRecord
100
AcDbLinetypeTableRecord
  2
PHANTOM
 70
     0
  3
____ _ _ ____ _ _ _____ _ _ ____
 72
    65
 73
     6
 40
50.5
 49
18.0
 74
     4
 75
     0
340
0
 46
0.0
 50
0.0
 44
0.0
 45
0.0
 49
-6.5
 74
     4
 75
     0
340
0
 46
0.0
 50
0.0
 44
0.0
 45
0.0
 49
6.5
 74
     4
 75
     0
340
0
 46
0.0
 50
0.0
 44
0.0
 45
0.0
 49
-6.5
 74
     4
 75
     0
340
0
 46
0.0
 50
0.0
 44
0.0
 45
0.0
 49
6.5
 74
     4
 75
     0
340
0
 46
0.0
 50
0.0
 44
0.0
 45
0.0
 49
-6.5
 74
     4
 75
     0
340
0
 46
0.0
 50
0.0
 44
0.0
 45
0.0
  0
LTYPE
  5
2E
330
5
100
AcDbSymbolTableRecord
100
AcDbLinetypeTableRecord
  2
CENTER
 70
     0
  3
____ _ ____ _ ____ _ ____
 72
    65
 73
     4
 40
47.4
 49
22.0
 74
     4
 75
     0
340
0
 46
0.0
 50
0.0
 44
0.0
 45
0.0
 49
-8.5
 74
     4
 75
     0
340
0
 46
0.0
 50
0.0
 44
0.0
 45
0.0
 49
8.5
 74
     4
 75
     0
340
0
 46
0.0
 50
0.0
 44
0.0
 45
0.0
 49
-8.5
 74
     4
 75
     0
340
0
 46
0.0
 50
0.0
 44
0.0
 45
0.0
  0
LTYPE
  5
2F
330
5
100
AcDbSymbolTableRecord
100
AcDbLinetypeTableRecord
  2
DOT
 70
     0
  3
.........................
 72
    65
 73
     2
 40
10.0
 49
0.0
 74
     4
 75
     0
340
0
 46
0.0
 50
0.0
 44
0.0
 45
0.0
 49
-10.0
 74
     4
 75
     0
340
0
 46
0.0
 50
0.0
 44
0.0
 45
0.0
  0
LTYPE
  5
30
330
5
100
AcDbSymbolTableRecord
100
AcDbLinetypeTableRecord
  2
DASHDOT
 70
     0
  3
_._._._._._._._._._._._._._._._.
 72
    65
 73
     4
 40
70.0
 49
31.0
 74
     4
 75
     0
340
0
 46
0.0
 50
0.0
 44
0.0
 45
0.0
 49
-13.0
 74
     4
 75
     0
340
0
 46
0.0
 50
0.0
 44
0.0
 45
0.0
 49
13.0
 74
     4
 75
     0
340
0
 46
0.0
 50
0.0
 44
0.0
 45
0.0
 49
-13.0
 74
     4
 75
     0
340
0
 46
0.0
 50
0.0
 44
0.0
 45
0.0
  0
ENDTAB
  0
TABLE
  2
LAYER
  5
2
330
0
100
AcDbSymbolTable
 70
     2
  0
LAYER
  5
10
330
2
100
AcDbSymbolTableRecord
100
AcDbLayerTableRecord
  2
0
 70
     0
 62
     7
  6
Continuous
370
    -3
390
F
  0
LAYER
  5
32
330
2
100
AcDbSymbolTableRecord
100
AcDbLayerTableRecord
  2
1
 70
     0
 62
     7
  6
Continuous
370
    -3
390
F
  0
ENDTAB
  0
TABLE
  2
STYLE
  5
3
330
0
100
AcDbSymbolTable
 70
     1
  0
STYLE
  5
11
330
3
100
AcDbSymbolTableRecord
100
AcDbTextStyleTableRecord
  2
Standard
 70
     0
 40
0.0
 41
1.0
 50
0.0
 71
     0
 42
0.2
  3
txt
  4

  0
ENDTAB
  0
TABLE
  2
VIEW
  5
6
330
0
100
AcDbSymbolTable
 70
     8
  0
VIEW
  5
16F
330
6
100
AcDbSymbolTableRecord
100
AcDbViewTableRecord
  2
TOP
 70
     0
 40
225.191429
 10
0.0
 20
0.0
 41
434.75
 11
0.0
 21
0.0
 31
1.0
 12
0.0
 22
0.0
 32
0.0
 42
50.0
 43
808.373257
 44
-808.373257
 50
0.0
 71
     0
281
     0
 72
     0
  0
VIEW
  5
170
330
6
100
AcDbSymbolTableRecord
100
AcDbViewTableRecord
  2
FRONT
 70
     0
 40
1616.746515
 10
0.0
 20
0.0
 41
434.75
 11
0.0
 21
-1.0
 31
0.0
 12
0.0
 22
0.0
 32
0.0
 42
50.0
 43
837.089729
 44
-837.089729
 50
0.0
 71
     0
281
     0
 72
     0
  0
VIEW
  5
171
330
6
100
AcDbSymbolTableRecord
100
AcDbViewTableRecord
  2
RIGHT
 70
     0
 40
1616.746515
 10
0.0
 20
0.0
 41
225.191429
 11
1.0
 21
0.0
 31
0.0
 12
0.0
 22
0.0
 32
0.0
 42
50.0
 43
816.177137
 44
-816.177137
 50
0.0
 71
     0
281
     0
 72
     0
  0
VIEW
  5
172
330
6
100
AcDbSymbolTableRecord
100
AcDbViewTableRecord
  2
BACK
 70
     0
 40
1616.746515
 10
0.0
 20
0.0
 41
434.75
 11
0.0
 21
1.0
 31
0.0
 12
0.0
 22
0.0
 32
0.0
 42
50.0
 43
837.089729
 44
-837.089729
 50
0.0
 71
     0
281
     0
 72
     0
  0
VIEW
  5
173
330
6
100
AcDbSymbolTableRecord
100
AcDbViewTableRecord
  2
BOTTOM
 70
     0
 40
225.191429
 10
0.0
 20
0.0
 41
434.75
 11
0.0
 21
0.0
 31
-1.0
 12
0.0
 22
0.0
 32
0.0
 42
50.0
 43
808.373257
 44
-808.373257
 50
180.0
 71
     0
281
     0
 72
     0
  0
VIEW
  5
174
330
6
100
AcDbSymbolTableRecord
100
AcDbViewTableRecord
  2
LEFT
 70
     0
 40
1616.746515
 10
0.0
 20
0.0
 41
225.191429
 11
-1.0
 21
0.0
 31
0.0
 12
0.0
 22
0.0
 32
0.0
 42
50.0
 43
816.177137
 44
-816.177137
 50
0.0
 71
     0
281
     0
 72
     0
  0
VIEW
  5
175
330
6
100
AcDbSymbolTableRecord
100
AcDbViewTableRecord
  2
TFR-ISO
 70
     0
 40
1589.487962
 10
0.0
 20
0.0
 41
466.649059
 11
0.5773502691896258
 21
-0.5773502691896258
 31
0.5773502691896258
 12
0.0
 22
0.0
 32
0.0
 42
50.0
 43
828.286382
 44
-828.286382
 50
0.0
 71
     0
281
     0
 72
     0
  0
VIEW
  5
176
330
6
100
AcDbSymbolTableRecord
100
AcDbViewTableRecord
  2
TFR-TRI
 70
     0
 40
1678.442937
 10
0.0
 20
0.0
 41
449.081994
 11
0.7188730927569434
 21
-0.5850486126764432
 31
0.3754192287502549
 12
0.0
 22
0.0
 32
0.0
 42
50.0
 43
828.582589
 44
-828.582589
 50
0.0
 71
     0
281
     0
 72
     0
  0
ENDTAB
  0
TABLE
  2
UCS
  5
7
330
0
100
AcDbSymbolTable
 70
     0
  0
ENDTAB
  0
TABLE
  2
APPID
  5
9
330
0
100
AcDbSymbolTable
 70
     1
  0
APPID
  5
12
330
9
100
AcDbSymbolTableRecord
100
AcDbRegAppTableRecord
  2
ACAD
 70
     0
  0
ENDTAB
  0
TABLE
  2
DIMSTYLE
  5
A
330
0
100
AcDbSymbolTable
 70
     1
100
AcDbDimStyleTable
  0
DIMSTYLE
105
27
330
A
100
AcDbSymbolTableRecord
100
AcDbDimStyleTableRecord
  2
Standard
 70
     0
340
11
  0
ENDTAB
  0
TABLE
  2
BLOCK_RECORD
  5
1
330
0
100
AcDbSymbolTable
 70
     1
  0
BLOCK_RECORD
  5
1F
330
1
100
AcDbSymbolTableRecord
100
AcDbBlockTableRecord
  2
*Model_Space
340
22
  0
BLOCK_RECORD
  5
1B
330
1
100
AcDbSymbolTableRecord
100
AcDbBlockTableRecord
  2
*Paper_Space
340
1E
  0
BLOCK_RECORD
  5
23
330
1
100
AcDbSymbolTableRecord
100
AcDbBlockTableRecord
  2
*Paper_Space0
340
26
  0
ENDTAB
  0
ENDSEC
  0
SECTION
  2
BLOCKS
  0
BLOCK
  5
20
330
1F
100
AcDbEntity
  8
0
100
AcDbBlockBegin
  2
*Model_Space
 70
     0
 71
     0
 10
0.0
 20
0.0
 30
0.0
  3
*Model_Space
  1

  0
ENDBLK
  5
21
330
1F
100
AcDbEntity
  8
0
100
AcDbBlockEnd
  0
BLOCK
  5
1C
330
1B
100
AcDbEntity
 67
     1
  8
0
100
AcDbBlockBegin
  2
*Paper_Space
 70
     0
 71
     0
 10
0.0
 20
0.0
 30
0.0
  3
*Paper_Space
  1

  0
ENDBLK
  5
1D
330
1B
100
AcDbEntity
 67
     1
  8
0
100
AcDbBlockEnd
  0
BLOCK
  5
24
330
23
100
AcDbEntity
  8
0
100
AcDbBlockBegin
  2
*Paper_Space0
 70
     0
 71
     0
 10
0.0
 20
0.0
 30
0.0
  3
*Paper_Space0
  1

  0
ENDBLK
  5
25
330
23
100
AcDbEntity
  8
0
100
AcDbBlockEnd
  0
ENDSEC
  0
SECTION
  2
ENTITIES
  0
LINE
  5
31
330
1F
100
AcDbEntity
  8
1
 62
     7
100
AcDbLine
 10
0.0
 20
6.0
 30
0.0
 11
349.77
 21
6.0
 31
0.0
  0
LINE
  5
33
330
1F
100
AcDbEntity
  8
1
 62
     7
100
AcDbLine
 10
96.477382
 20
0.27
 30
25.6
 11
96.477382
 21
0.0
 31
25.6
  0
CIRCLE
  5
34
330
1F
100
AcDbEntity
  8
1
 62
     7
100
AcDbCircle
 10
39.53
 20
55.0
 30
-2.82418
 40
2.14830490129714
210
0.0
220
-1.0
230
0.0
  0
ARC
  5
35
330
1F
100
AcDbEntity
  8
1
 62
     7
100
AcDbCircle
 10
360.0
 20
62.5
 30
-15.0
 40
7.0
210
-2.478176394252566E-16
220
-1.0
230
1.387778780781435E-16
100
AcDbArc
 50
-90.0
 51
90.0
  0
CIRCLE
  5
36
330
1F
100
AcDbEntity
  8
1
 62
     7
100
AcDbCircle
 10
10.0
 20
17.0
 30
-2.25
 40
2.75
210
0.0
220
-1.0
230
0.0
  0
LINE
  5
37
330
1F
100
AcDbEntity
  8
1
 62
     7
100
AcDbLine
 10
350.0
 20
11.0
 30
49.5
 11
350.0
 21
11.0
 31
74.5
  0
ARC
  5
38
330
1F
100
AcDbEntity
  8
1
 62
     7
100
AcDbCircle
 10
-101.088509
 20
46.45
 30
0.0
 40
31.44708737294595
210
0.0
220
1.0
230
0.0
100
AcDbArc
 50
191.835452
 51
348.164548
  0
LINE
  5
39
330
1F
100
AcDbEntity
  8
1
 62
     7
100
AcDbLine
 10
45.0
 20
12.0
 30
25.5
 11
70.0
 21
12.0
 31
25.5
  0
LINE
  5
3A
330
1F
100
AcDbEntity
  8
1
 62
     7
100
AcDbLine
 10
315.0
 20
37.0
 30
-119.5
 11
315.0
 21
32.0
 31
-119.5
  0
LINE
  5
3B
330
1F
100
AcDbEntity
  8
1
 62
     7
100
AcDbLine
 10
53.0
 20
127.39582
 30
30.5
 11
53.0
 21
143.39582
 31
30.5
  0
CIRCLE
  5
3C
330
1F
100
AcDbEntity
  8
1
 62
     7
100
AcDbCircle
 10
-297.0
 20
4.932273
 30
149.047885
 40
5.0
210
1.006203772565162E-14
220
0.4226182617406979
230
0.9063077870366508
  0
LINE
  5
3D
330
1F
100
AcDbEntity
  8
1
 62
     7
100
AcDbLine
 10
0.0
 20
0.0
 30
80.0
 11
349.77
 21
0.0
 31
80.0
  0
LINE
  5
3E
330
1F
100
AcDbEntity
  8
1
 62
     7
100
AcDbLine
 10
290.0
 20
168.39582
 30
24.25
 11
315.0
 21
168.39582
 31
24.25
  0
ARC
  5
3F
330
1F
100
AcDbEntity
  8
1
 62
     7
100
AcDbCircle
 10
-57.5
 20
127.39582
 30
-25.5
 40
4.5
210
-9.673913673540741E-15
220
0.0
230
-1.0
100
AcDbArc
 50
-180.0
 51
0.0
  0
ARC
  5
40
330
1F
100
AcDbEntity
  8
1
 62
     7
100
AcDbCircle
 10
162.647022
 20
33.55
 30
0.0
 40
31.44854368647305
210
0.0
220
-1.0
230
0.0
100
AcDbArc
 50
11.834617
 51
168.164548
  0
CIRCLE
  5
41
330
1F
100
AcDbEntity
  8
1
 62
     7
100
AcDbCircle
 10
39.53
 20
55.0
 30
-6.0
 40
2.75
210
-2.478176394252566E-16
220
-1.0
230
1.387778780781435E-16
  0
ARC
  5
42
330
1F
100
AcDbEntity
  8
1
 62
     7
100
AcDbCircle
 10
162.647022
 20
33.55
 30
-6.0
 40
31.44854368647305
210
0.0
220
-1.0
230
0.0
100
AcDbArc
 50
11.834617
 51
168.164548
  0
LINE
  5
43
330
1F
100
AcDbEntity
  8
1
 62
     7
100
AcDbLine
 10
0.0
 20
36.0
 30
35.5
 11
0.0
 21
6.0
 31
35.5
  0
LINE
  5
44
330
1F
100
AcDbEntity
  8
1
 62
     7
100
AcDbLine
 10
335.0
 20
11.0
 30
69.5
 11
335.0
 21
11.0
 31
55.5
  0
ARC
  5
45
330
1F
100
AcDbEntity
  8
1
 62
     7
100
AcDbCircle
 10
285.767022
 20
33.55
 30
-6.0
 40
31.45
210
0.0
220
-1.0
230
0.0
100
AcDbArc
 50
11.834617
 51
169.036409
  0
LINE
  5
46
330
1F
100
AcDbEntity
  8
1
 62
     7
100
AcDbLine
 10
281.155894
 20
0.0
 30
54.4
 11
290.378149
 21
0.0
 31
54.4
  0
LINE
  5
47
330
1F
100
AcDbEntity
  8
1
 62
     7
100
AcDbLine
 10
350.0
 20
36.0
 30
35.5
 11
350.0
 21
6.0
 31
35.5
  0
LINE
  5
48
330
1F
100
AcDbEntity
  8
1
 62
     7
100
AcDbLine
 10
281.155894
 20
0.0
 30
54.4
 11
281.155894
 21
0.27
 31
54.4
  0
ARC
  5
49
330
1F
100
AcDbEntity
  8
1
 62
     7
100
AcDbCircle
 10
360.0
 20
62.5
 30
-11.0
 40
7.0
210
-2.478176394252566E-16
220
-1.0
230
1.387778780781435E-16
100
AcDbArc
 50
-90.0
 51
90.0
  0
LINE
  5
4A
330
1F
100
AcDbEntity
  8
1
 62
     7
100
AcDbLine
 10
254.891039
 20
6.0
 30
39.531324
 11
254.891039
 21
0.0
 31
39.531324
  0
LINE
  5
4B
330
1F
100
AcDbEntity
  8
1
 62
     7
100
AcDbLine
 10
350.0
 20
6.0
 30
44.5
 11
350.0
 21
36.0
 31
44.5
  0
CIRCLE
  5
4C
330
1F
100
AcDbEntity
  8
1
 62
     7
100
AcDbCircle
 10
70.0
 20
4.932273
 30
-149.047885
 40
9.5
210
-7.943713993935487E-15
220
-0.4226182617406997
230
-0.9063077870366501
  0
CIRCLE
  5
4D
330
1F
100
AcDbEntity
  8
1
 62
     7
100
AcDbCircle
 10
101.088509
 20
25.0
 30
-11.5
 40
2.5
210
-2.478176394252566E-16
220
-1.0
230
1.387778780781435E-16
  0
LINE
  5
4E
330
1F
100
AcDbEntity
  8
1
 62
     7
100
AcDbLine
 10
45.0
 20
12.0
 30
25.5
 11
45.0
 21
12.0
 31
30.5
  0
LINE
  5
4F
330
1F
100
AcDbEntity
  8
1
 62
     7
100
AcDbLine
 10
297.77
 20
11.0
 30
9.5
 11
297.77
 21
15.0
 31
9.5
  0
LINE
  5
50
330
1F
100
AcDbEntity
  8
1
 62
     7
100
AcDbLine
 10
45.0
 20
37.0
 30
25.5
 11
45.0
 21
37.0
 31
-119.5
  0
LINE
  5
51
330
1F
100
AcDbEntity
  8
1
 62
     7
100
AcDbLine
 10
298.0
 20
143.39582
 30
24.25
 11
298.0
 21
127.39582
 31
24.25
  0
CIRCLE
  5
52
330
1F
100
AcDbEntity
  8
1
 62
     7
100
AcDbCircle
 10
-39.53
 20
55.0
 30
12.0
 40
2.0
210
0.0
220
1.0
230
0.0
  0
CIRCLE
  5
53
330
1F
100
AcDbEntity
  8
1
 62
     7
100
AcDbCircle
 10
359.77
 20
17.0
 30
-11.0
 40
2.5
210
0.0
220
-1.0
230
0.0
  0
LINE
  5
54
330
1F
100
AcDbEntity
  8
1
 62
     7
100
AcDbLine
 10
8.75
 20
0.0
 30
40.0
 11
0.0
 21
0.0
 31
40.0
  0
LINE
  5
55
330
1F
100
AcDbEntity
  8
1
 62
     7
100
AcDbLine
 10
316.54851
 20
6.0
 30
40.0
 11
316.54851
 21
0.0
 31
40.0
  0
ARC
  5
56
330
1F
100
AcDbEntity
  8
1
 62
     7
100
AcDbCircle
 10
39.53
 20
55.0
 30
-1.4
 40
3.52
210
0.0
220
-1.0
230
-3.080119808197454E-16
100
AcDbArc
 50
-9.814248
 51
9.814248
  0
ARC
  5
57
330
1F
100
AcDbEntity
  8
1
 62
     7
100
AcDbCircle
 10
-39.53
 20
55.0
 30
0.0
 40
4.65
210
0.0
220
1.0
230
0.0
100
AcDbArc
 50
187.413674
 51
352.586326
  0
LINE
  5
58
330
1F
100
AcDbEntity
  8
1
 62
     7
100
AcDbLine
 10
70.0
 20
32.0
 30
-119.5
 11
70.0
 21
32.0
 31
25.5
  0
ARC
  5
59
330
1F
100
AcDbEntity
  8
1
 62
     7
100
AcDbCircle
 10
-347.33
 20
46.45
 30
6.0
 40
31.4500025475813
210
0.0
220
1.0
230
0.0
100
AcDbArc
 50
270.0
 51
348.165383
  0
LINE
  5
5A
330
1F
100
AcDbEntity
  8
1
 62
     7
100
AcDbLine
 10
104.556996
 20
1.4
 30
25.6
 11
97.620023
 21
1.4
 31
25.6
  0
LINE
  5
5B
330
1F
100
AcDbEntity
  8
1
 62
     7
100
AcDbLine
 10
290.0
 20
37.0
 30
25.5
 11
315.0
 21
37.0
 31
25.5
  0
LINE
  5
5C
330
1F
100
AcDbEntity
  8
1
 62
     7
100
AcDbLine
 10
45.0
 20
37.0
 30
-119.5
 11
70.0
 21
37.0
 31
-119.5
  0
CIRCLE
  5
5D
330
1F
100
AcDbEntity
  8
1
 62
     7
100
AcDbCircle
 10
36.0
 20
17.0
 30
-2.25
 40
2.75
210
0.0
220
-1.0
230
0.0
  0
LINE
  5
5E
330
1F
100
AcDbEntity
  8
1
 62
     7
100
AcDbLine
 10
0.0
 20
6.0
 30
40.0
 11
0.0
 21
6.0
 31
80.0
  0
SPLINE
  5
5F
330
1F
100
AcDbEntity
  8
1
 62
     7
100
AcDbSpline
210
0.0
220
0.0
230
1.0
 70
     8
 71
     3
 72
     8
 73
     4
 74
     0
 42
0.000000001
 43
0.0000000001
 40
0.0
 40
0.0
 40
0.0
 40
0.0
 40
1.0
 40
1.0
 40
1.0
 40
1.0
 10
34.91887215531818
 20
0.2699999999999652
 30
54.40000000000001
 10
35.29924223794951
 20
0.6471903396354979
 30
54.40000000000001
 10
35.67996657487623
 20
1.024037006757186
 30
54.40000000000001
 10
36.06151329828121
 20
1.399999999999949
 30
54.4
  0
LINE
  5
60
330
1F
100
AcDbEntity
  8
1
 62
     7
100
AcDbLine
 10
315.0
 20
37.0
 30
25.5
 11
315.0
 21
37.0
 31
-119.5
  0
CIRCLE
  5
61
330
1F
100
AcDbEntity
  8
1
 62
     7
100
AcDbCircle
 10
285.767022
 20
55.0
 30
-2.25
 40
2.75
210
0.0
220
-1.0
230
0.0
  0
LINE
  5
62
330
1F
100
AcDbEntity
  8
1
 62
     7
100
AcDbLine
 10
0.0
 20
6.0
 30
74.5
 11
0.0
 21
6.0
 31
44.5
  0
CIRCLE
  5
63
330
1F
100
AcDbEntity
  8
1
 62
     7
100
AcDbCircle
 10
297.0
 20
28.0
 30
49.5
 40
5.0
  0
LINE
  5
64
330
1F
100
AcDbEntity
  8
1
 62
     7
100
AcDbLine
 10
45.0
 20
168.39582
 30
25.5
 11
45.0
 21
12.0
 31
25.5
  0
ARC
  5
65
330
1F
100
AcDbEntity
  8
1
 62
     7
100
AcDbCircle
 10
-347.33
 20
46.45
 30
0.0
 40
31.4500025475813
210
0.0
220
1.0
230
0.0
100
AcDbArc
 50
270.0
 51
348.165383
  0
LINE
  5
66
330
1F
100
AcDbEntity
  8
1
 62
     7
100
AcDbLine
 10
290.0
 20
32.0
 30
25.5
 11
290.0
 21
37.0
 31
25.5
  0
LINE
  5
67
330
1F
100
AcDbEntity
  8
1
 62
     7
100
AcDbLine
 10
0.0
 20
6.0
 30
40.0
 11
0.0
 21
0.0
 31
40.0
  0
CIRCLE
  5
68
330
1F
100
AcDbEntity
  8
1
 62
     7
100
AcDbCircle
 10
285.77
 20
55.0
 30
-11.0
 40
2.75
210
0.0
220
-1.0
230
0.0
  0
LINE
  5
69
330
1F
100
AcDbEntity
  8
1
 62
     7
100
AcDbLine
 10
281.155894
 20
0.27
 30
55.6
 11
281.155894
 21
0.0
 31
55.6
  0
LINE
  5
6A
330
1F
100
AcDbEntity
  8
1
 62
     7
100
AcDbLine
 10
45.0
 20
12.0
 30
30.5
 11
70.0
 21
12.0
 31
30.5
  0
CIRCLE
  5
6B
330
1F
100
AcDbEntity
  8
1
 62
     7
100
AcDbCircle
 10
101.088509
 20
25.0
 30
-2.25
 40
2.75
210
0.0
220
-1.0
230
0.0
  0
LINE
  5
6C
330
1F
100
AcDbEntity
  8
1
 62
     7
100
AcDbLine
 10
290.378149
 20
0.0
 30
54.4
 11
290.378149
 21
0.27
 31
54.4
  0
LINE
  5
6D
330
1F
100
AcDbEntity
  8
1
 62
     7
100
AcDbLine
 10
104.556996
 20
1.4
 30
24.4
 11
97.620023
 21
1.4
 31
24.4
  0
LINE
  5
6E
330
1F
100
AcDbEntity
  8
1
 62
     7
100
AcDbLine
 10
349.77
 20
6.0
 30
14.999997
 11
347.33
 21
6.0
 31
14.999997
  0
ARC
  5
6F
330
1F
100
AcDbEntity
  8
1
 62
     7
100
AcDbCircle
 10
-57.5
 20
143.39582
 30
-25.5
 40
4.5
210
-9.673913673540741E-15
220
0.0
230
-1.0
100
AcDbArc
 50
0.0
 51
180.0
  0
LINE
  5
70
330
1F
100
AcDbEntity
  8
1
 62
     7
100
AcDbLine
 10
290.378149
 20
0.27
 30
55.6
 11
290.378149
 21
0.0
 31
55.6
  0
LINE
  5
71
330
1F
100
AcDbEntity
  8
1
 62
     7
100
AcDbLine
 10
350.0
 20
11.0
 30
5.5
 11
0.0
 21
11.0
 31
5.5
  0
ARC
  5
72
330
1F
100
AcDbEntity
  8
1
 62
     7
100
AcDbCircle
 10
-285.767022
 20
55.0
 30
0.27
 40
4.65
210
0.0
220
1.0
230
0.0
100
AcDbArc
 50
187.413674
 51
352.586326
  0
LINE
  5
73
330
1F
100
AcDbEntity
  8
1
 62
     7
100
AcDbLine
 10
62.0
 20
143.39582
 30
25.5
 11
62.0
 21
143.39582
 31
30.5
  0
CIRCLE
  5
74
330
1F
100
AcDbEntity
  8
1
 62
     7
100
AcDbCircle
 10
-285.767022
 20
55.0
 30
3.690846
 40
2.148304901297135
210
0.0
220
1.0
230
0.0
  0
CIRCLE
  5
75
330
1F
100
AcDbEntity
  8
1
 62
     7
100
AcDbCircle
 10
-285.767022
 20
55.0
 30
2.7
 40
2.22
210
0.0
220
1.0
230
0.0
  0
LINE
  5
76
330
1F
100
AcDbEntity
  8
1
 62
     7
100
AcDbLine
 10
8.75
 20
6.0
 30
40.0
 11
8.75
 21
0.0
 31
40.0
  0
LINE
  5
77
330
1F
100
AcDbEntity
  8
1
 62
     7
100
AcDbLine
 10
290.0
 20
168.39582
 30
29.25
 11
290.0
 21
168.39582
 31
24.25
  0
CIRCLE
  5
78
330
1F
100
AcDbEntity
  8
1
 62
     7
100
AcDbCircle
 10
-70.0
 20
4.932273
 30
149.047885
 40
5.0
210
1.006203772565162E-14
220
0.4226182617406979
230
0.9063077870366508
  0
CIRCLE
  5
79
330
1F
100
AcDbEntity
  8
1
 62
     7
100
AcDbCircle
 10
-101.088509
 20
25.0
 30
12.0
 40
2.0
210
0.0
220
1.0
230
0.0
  0
LINE
  5
7A
330
1F
100
AcDbEntity
  8
1
 62
     7
100
AcDbLine
 10
397.77
 20
15.0
 30
24.5
 11
397.77
 21
11.0
 31
24.5
  0
LINE
  5
7B
330
1F
100
AcDbEntity
  8
1
 62
     7
100
AcDbLine
 10
349.77
 20
0.0
 30
0.0
 11
349.77
 21
0.0
 31
14.999997
  0
LINE
  5
7C
330
1F
100
AcDbEntity
  8
1
 62
     7
100
AcDbLine
 10
53.0
 20
127.39582
 30
25.5
 11
53.0
 21
143.39582
 31
25.5
  0
LINE
  5
7D
330
1F
100
AcDbEntity
  8
1
 62
     7
100
AcDbLine
 10
44.141128
 20
0.0
 30
55.6
 11
34.918872
 21
0.0
 31
55.6
  0
LINE
  5
7E
330
1F
100
AcDbEntity
  8
1
 62
     7
100
AcDbLine
 10
45.0
 20
37.0
 30
-119.5
 11
45.0
 21
32.0
 31
-119.5
  0
CIRCLE
  5
7F
330
1F
100
AcDbEntity
  8
1
 62
     7
100
AcDbCircle
 10
101.09
 20
25.0
 30
-11.0
 40
2.75
210
0.0
220
-1.0
230
0.0
  0
CIRCLE
  5
80
330
1F
100
AcDbEntity
  8
1
 62
     7
100
AcDbCircle
 10
39.53
 20
55.0
 30
-11.5
 40
2.5
210
-2.478176394252566E-16
220
-1.0
230
1.387778780781435E-16
  0
LINE
  5
81
330
1F
100
AcDbEntity
  8
1
 62
     7
100
AcDbLine
 10
297.77
 20
11.0
 30
9.5
 11
397.77
 21
11.0
 31
9.5
  0
SPLINE
  5
82
330
1F
100
AcDbEntity
  8
1
 62
     7
100
AcDbSpline
210
0.0
220
0.0
230
1.0
 70
     8
 71
     3
 72
     8
 73
     4
 74
     0
 42
0.000000001
 43
0.0000000001
 40
0.0
 40
0.0
 40
0.0
 40
0.0
 40
1.0
 40
1.0
 40
1.0
 40
1.0
 10
104.556996157836
 20
1.399999999999983
 30
25.59999999999999
 10
104.9385589041413
 20
1.024021218343334
 30
25.59999999999999
 10
105.3192718421831
 20
0.6471857542750957
 30
25.59999999999999
 10
105.699637300799
 20
0.2700000000000051
 30
25.59999999999999
  0
LINE
  5
83
330
1F
100
AcDbEntity
  8
1
 62
     7
100
AcDbLine
 10
349.77
 20
0.0
 30
14.999997
 11
347.33
 21
0.0
 31
14.999997
  0
ARC
  5
84
330
1F
100
AcDbEntity
  8
1
 62
     7
100
AcDbCircle
 10
302.5
 20
143.39582
 30
24.25
 40
4.5
100
AcDbArc
 50
0.0
 51
180.0
  0
LINE
  5
85
330
1F
100
AcDbEntity
  8
1
 62
     7
100
AcDbLine
 10
44.141128
 20
0.0
 30
54.4
 11
44.141128
 21
0.27
 31
54.4
  0
CIRCLE
  5
86
330
1F
100
AcDbEntity
  8
1
 62
     7
100
AcDbCircle
 10
57.5
 20
-89.5
 30
-34.35
 40
4.0
210
0.0
220
-1.0
230
0.0
  0
CIRCLE
  5
87
330
1F
100
AcDbEntity
  8
1
 62
     7
100
AcDbCircle
 10
39.53
 20
55.0
 30
-6.0
 40
2.75
210
0.0
220
-1.0
230
-3.080119808197454E-16
  0
LINE
  5
88
330
1F
100
AcDbEntity
  8
1
 62
     7
100
AcDbLine
 10
0.0
 20
6.0
 30
40.0
 11
0.0
 21
6.0
 31
0.0
  0
SPLINE
  5
89
330
1F
100
AcDbEntity
  8
1
 62
     7
100
AcDbSpline
210
0.0
220
0.0
230
1.0
 70
     8
 71
     3
 72
     8
 73
     4
 74
     0
 42
0.000000001
 43
0.0000000001
 40
0.0
 40
0.0
 40
0.0
 40
0.0
 40
1.0
 40
1.0
 40
1.0
 40
1.0
 10
105.699637300799
 20
0.270000000000002
 30
24.40000000000001
 10
105.3192718421831
 20
0.647185754275094
 30
24.4
 10
104.9385589041413
 20
1.024021218343336
 30
24.4
 10
104.556996157836
 20
1.399999999999986
 30
24.4
  0
ARC
  5
8A
330
1F
100
AcDbEntity
  8
1
 62
     7
100
AcDbCircle
 10
-39.53
 20
55.0
 30
0.27
 40
4.65
210
0.0
220
1.0
230
0.0
100
AcDbArc
 50
7.413674
 51
172.586326
  0
LINE
  5
8B
330
1F
100
AcDbEntity
  8
1
 62
     7
100
AcDbLine
 10
0.0
 20
6.0
 30
5.5
 11
0.0
 21
11.0
 31
5.5
  0
CIRCLE
  5
8C
330
1F
100
AcDbEntity
  8
1
 62
     7
100
AcDbCircle
 10
-39.53
 20
55.0
 30
0.0
 40
5.0
210
0.0
220
1.0
230
0.0
  0
CIRCLE
  5
8D
330
1F
100
AcDbEntity
  8
1
 62
     7
100
AcDbCircle
 10
101.088509
 20
25.0
 30
-2.82418
 40
2.14830490129714
210
0.0
220
-1.0
230
0.0
  0
LINE
  5
8E
330
1F
100
AcDbEntity
  8
1
 62
     7
100
AcDbLine
 10
350.0
 20
36.0
 30
49.5
 11
350.0
 21
11.0
 31
49.5
  0
LINE
  5
8F
330
1F
100
AcDbEntity
  8
1
 62
     7
100
AcDbLine
 10
254.891039
 20
6.0
 30
39.531324
 11
254.891039
 21
0.0
 31
39.531324
  0
ARC
  5
90
330
1F
100
AcDbEntity
  8
1
 62
     7
100
AcDbCircle
 10
162.647022
 20
33.55
 30
0.0
 40
31.44854368647305
210
0.0
220
-1.0
230
0.0
100
AcDbArc
 50
11.834617
 51
168.164548
  0
LINE
  5
91
330
1F
100
AcDbEntity
  8
1
 62
     7
100
AcDbLine
 10
34.918872
 20
0.0
 30
54.4
 11
34.918872
 21
0.27
 31
54.4
  0
CIRCLE
  5
92
330
1F
100
AcDbEntity
  8
1
 62
     7
100
AcDbCircle
 10
302.5
 20
-89.5
 30
-37.0
 40
4.0
210
0.0
220
-1.0
230
-3.080119808197454E-16
  0
LINE
  5
93
330
1F
100
AcDbEntity
  8
1
 62
     7
100
AcDbLine
 10
0.0
 20
6.0
 30
80.0
 11
349.77
 21
6.0
 31
80.0
  0
ARC
  5
94
330
1F
100
AcDbEntity
  8
1
 62
     7
100
AcDbCircle
 10
-57.5
 20
143.39582
 30
-30.5
 40
4.5
210
-9.673913673540741E-15
220
0.0
230
-1.0
100
AcDbArc
 50
0.0
 51
180.0
  0
CIRCLE
  5
95
330
1F
100
AcDbEntity
  8
1
 62
     7
100
AcDbCircle
 10
-101.088509
 20
25.0
 30
4.3
 40
2.5
210
0.0
220
1.0
230
0.0
  0
LINE
  5
96
330
1F
100
AcDbEntity
  8
1
 62
     7
100
AcDbLine
 10
0.0
 20
0.0
 30
40.0
 11
0.0
 21
0.0
 31
80.0
  0
LINE
  5
97
330
1F
100
AcDbEntity
  8
1
 62
     7
100
AcDbLine
 10
70.0
 20
168.39582
 30
30.5
 11
45.0
 21
168.39582
 31
30.5
  0
CIRCLE
  5
98
330
1F
100
AcDbEntity
  8
1
 62
     7
100
AcDbCircle
 10
-285.767022
 20
55.0
 30
12.0
 40
2.0
210
0.0
220
1.0
230
0.0
  0
LINE
  5
99
330
1F
100
AcDbEntity
  8
1
 62
     7
100
AcDbLine
 10
0.0
 20
36.0
 30
30.5
 11
0.0
 21
36.0
 31
35.5
  0
SPLINE
  5
9A
330
1F
100
AcDbEntity
  8
1
 62
     7
100
AcDbSpline
210
0.0
220
0.0
230
1.0
 70
     8
 71
     3
 72
     8
 73
     4
 74
     0
 42
0.000000001
 43
0.0000000001
 40
0.0
 40
0.0
 40
0.0
 40
0.0
 40
1.0
 40
1.0
 40
1.0
 40
1.0
 10
282.2985348035707
 20
1.399999999999952
 30
55.59999999999999
 10
281.9169789104906
 20
1.02402797127528
 30
55.59999999999999
 10
281.5362609089058
 20
0.6471875289961985
 30
55.59999999999999
 10
281.1558936606077
 20
0.2699999999999619
 30
55.59999999999999
  0
LINE
  5
9B
330
1F
100
AcDbEntity
  8
1
 62
     7
100
AcDbLine
 10
289.235508
 20
1.4
 30
54.4
 11
282.298535
 21
1.4
 31
54.4
  0
LINE
  5
9C
330
1F
100
AcDbEntity
  8
1
 62
     7
100
AcDbLine
 10
360.0
 20
11.0
 30
55.5
 11
360.0
 21
15.0
 31
55.5
  0
ARC
  5
9D
330
1F
100
AcDbEntity
  8
1
 62
     7
100
AcDbCircle
 10
-285.767022
 20
55.0
 30
0.0
 40
4.65
210
0.0
220
1.0
230
0.0
100
AcDbArc
 50
187.413674
 51
352.586326
  0
LINE
  5
9E
330
1F
100
AcDbEntity
  8
1
 62
     7
100
AcDbLine
 10
62.0
 20
127.39582
 30
25.5
 11
62.0
 21
127.39582
 31
30.5
  0
LINE
  5
9F
330
1F
100
AcDbEntity
  8
1
 62
     7
100
AcDbLine
 10
193.427084
 20
6.0
 30
39.999701
 11
193.427084
 21
0.0
 31
39.999701
  0
LINE
  5
A0
330
1F
100
AcDbEntity
  8
1
 62
     7
100
AcDbLine
 10
315.0
 20
168.39582
 30
29.25
 11
315.0
 21
168.39582
 31
24.25
  0
ARC
  5
A1
330
1F
100
AcDbEntity
  8
1
 62
     7
100
AcDbCircle
 10
-101.088509
 20
25.0
 30
0.0
 40
4.65
210
0.0
220
1.0
230
0.0
100
AcDbArc
 50
7.413674
 51
172.586326
  0
LINE
  5
A2
330
1F
100
AcDbEntity
  8
1
 62
     7
100
AcDbLine
 10
350.0
 20
6.0
 30
44.5
 11
0.0
 21
6.0
 31
44.5
  0
LINE
  5
A3
330
1F
100
AcDbEntity
  8
1
 62
     7
100
AcDbLine
 10
0.0
 20
36.0
 30
49.5
 11
0.0
 21
11.0
 31
49.5
  0
CIRCLE
  5
A4
330
1F
100
AcDbEntity
  8
1
 62
     7
100
AcDbCircle
 10
70.0
 20
28.0
 30
49.5
 40
5.0
  0
ARC
  5
A5
330
1F
100
AcDbEntity
  8
1
 62
     7
100
AcDbCircle
 10
285.767022
 20
33.55
 30
0.0
 40
31.45
210
0.0
220
-1.0
230
0.0
100
AcDbArc
 50
11.834617
 51
169.036409
  0
LINE
  5
A6
330
1F
100
AcDbEntity
  8
1
 62
     7
100
AcDbLine
 10
70.0
 20
12.0
 30
25.5
 11
70.0
 21
12.0
 31
30.5
  0
CIRCLE
  5
A7
330
1F
100
AcDbEntity
  8
1
 62
     7
100
AcDbCircle
 10
36.0
 20
17.0
 30
-6.0
 40
2.5
210
-2.478176394252566E-16
220
-1.0
230
1.387778780781435E-16
  0
LINE
  5
A8
330
1F
100
AcDbEntity
  8
1
 62
     7
100
AcDbLine
 10
350.0
 20
36.0
 30
30.5
 11
350.0
 21
36.0
 31
35.5
  0
LINE
  5
A9
330
1F
100
AcDbEntity
  8
1
 62
     7
100
AcDbLine
 10
297.77
 20
15.0
 30
9.5
 11
397.77
 21
15.0
 31
9.5
  0
CIRCLE
  5
AA
330
1F
100
AcDbEntity
  8
1
 62
     7
100
AcDbCircle
 10
-359.77
 20
17.0
 30
15.0
 40
2.5
210
0.0
220
1.0
230
0.0
  0
LINE
  5
AB
330
1F
100
AcDbEntity
  8
1
 62
     7
100
AcDbLine
 10
335.0
 20
11.0
 30
69.5
 11
335.0
 21
15.0
 31
69.5
  0
LINE
  5
AC
330
1F
100
AcDbEntity
  8
1
 62
     7
100
AcDbLine
 10
290.0
 20
32.0
 30
-119.5
 11
315.0
 21
32.0
 31
-119.5
  0
LINE
  5
AD
330
1F
100
AcDbEntity
  8
1
 62
     7
100
AcDbLine
 10
34.918872
 20
0.0
 30
54.4
 11
44.141128
 21
0.0
 31
54.4
  0
LINE
  5
AE
330
1F
100
AcDbEntity
  8
1
 62
     7
100
AcDbLine
 10
70.0
 20
37.0
 30
-119.5
 11
70.0
 21
32.0
 31
-119.5
  0
LINE
  5
AF
330
1F
100
AcDbEntity
  8
1
 62
     7
100
AcDbLine
 10
349.77
 20
6.0
 30
14.999997
 11
347.33
 21
6.0
 31
14.999997
  0
LINE
  5
B0
330
1F
100
AcDbEntity
  8
1
 62
     7
100
AcDbLine
 10
131.867053
 20
6.0
 30
40.000149
 11
131.867053
 21
0.0
 31
40.000149
  0
ARC
  5
B1
330
1F
100
AcDbEntity
  8
1
 62
     7
100
AcDbCircle
 10
101.088509
 20
25.0
 30
-1.4
 40
3.52
210
0.0
220
-1.0
230
-3.080119808197454E-16
100
AcDbArc
 50
-9.814248
 51
9.814248
  0
LINE
  5
B2
330
1F
100
AcDbEntity
  8
1
 62
     7
100
AcDbLine
 10
335.0
 20
15.0
 30
69.5
 11
335.0
 21
15.0
 31
55.5
  0
LINE
  5
B3
330
1F
100
AcDbEntity
  8
1
 62
     7
100
AcDbLine
 10
315.0
 20
168.39582
 30
24.25
 11
315.0
 21
12.0
 31
24.25
  0
ARC
  5
B4
330
1F
100
AcDbEntity
  8
1
 62
     7
100
AcDbCircle
 10
-39.53
 20
55.0
 30
1.4
 40
3.52
210
0.0
220
1.0
230
0.0
100
AcDbArc
 50
-9.814248
 51
9.814248
  0
CIRCLE
  5
B5
330
1F
100
AcDbEntity
  8
1
 62
     7
100
AcDbCircle
 10
10.0
 20
17.0
 30
-6.0
 40
2.75
210
0.0
220
-1.0
230
-3.080119808197454E-16
  0
LINE
  5
B6
330
1F
100
AcDbEntity
  8
1
 62
     7
100
AcDbLine
 10
350.0
 20
6.0
 30
74.5
 11
350.0
 21
6.0
 31
44.5
  0
LINE
  5
B7
330
1F
100
AcDbEntity
  8
1
 62
     7
100
AcDbLine
 10
8.75
 20
0.0
 30
40.0
 11
0.0
 21
0.0
 31
40.0
  0
ARC
  5
B8
330
1F
100
AcDbEntity
  8
1
 62
     7
100
AcDbCircle
 10
-39.53
 20
55.0
 30
0.27
 40
4.65
210
0.0
220
1.0
230
0.0
100
AcDbArc
 50
187.413674
 51
352.586326
  0
LINE
  5
B9
330
1F
100
AcDbEntity
  8
1
 62
     7
100
AcDbLine
 10
315.0
 20
12.0
 30
24.25
 11
290.0
 21
12.0
 31
24.25
  0
LINE
  5
BA
330
1F
100
AcDbEntity
  8
1
 62
     7
100
AcDbLine
 10
0.0
 20
11.0
 30
74.5
 11
0.0
 21
6.0
 31
74.5
  0
LINE
  5
BB
330
1F
100
AcDbEntity
  8
1
 62
     7
100
AcDbLine
 10
0.0
 20
6.0
 30
35.5
 11
0.0
 21
6.0
 31
5.5
  0
CIRCLE
  5
BC
330
1F
100
AcDbEntity
  8
1
 62
     7
100
AcDbCircle
 10
297.0
 20
28.0
 30
69.5
 40
5.0
  0
LINE
  5
BD
330
1F
100
AcDbEntity
  8
1
 62
     7
100
AcDbLine
 10
349.77
 20
0.0
 30
14.999997
 11
347.33
 21
0.0
 31
14.999997
  0
LINE
  5
BE
330
1F
100
AcDbEntity
  8
1
 62
     7
100
AcDbLine
 10
315.0
 20
32.0
 30
25.5
 11
315.0
 21
37.0
 31
25.5
  0
LINE
  5
BF
330
1F
100
AcDbEntity
  8
1
 62
     7
100
AcDbLine
 10
0.0
 20
11.0
 30
49.5
 11
0.0
 21
11.0
 31
74.5
  0
LINE
  5
C0
330
1F
100
AcDbEntity
  8
1
 62
     7
100
AcDbLine
 10
0.0
 20
6.0
 30
0.0
 11
0.0
 21
0.0
 31
0.0
  0
ARC
  5
C1
330
1F
100
AcDbEntity
  8
1
 62
     7
100
AcDbCircle
 10
39.53
 20
33.55
 30
-6.0
 40
31.44854368647295
210
0.0
220
-1.0
230
0.0
100
AcDbArc
 50
11.835452
 51
168.164826
  0
LINE
  5
C2
330
1F
100
AcDbEntity
  8
1
 62
     7
100
AcDbLine
 10
45.0
 20
168.39582
 30
30.5
 11
45.0
 21
12.0
 31
30.5
  0
LINE
  5
C3
330
1F
100
AcDbEntity
  8
1
 62
     7
100
AcDbLine
 10
349.77
 20
6.0
 30
80.0
 11
349.77
 21
6.0
 31
14.999997
  0
LINE
  5
C4
330
1F
100
AcDbEntity
  8
1
 62
     7
100
AcDbLine
 10
289.235508
 20
1.4
 30
55.6
 11
282.298535
 21
1.4
 31
55.6
  0
ARC
  5
C5
330
1F
100
AcDbEntity
  8
1
 62
     7
100
AcDbCircle
 10
285.767022
 20
55.0
 30
-1.4
 40
3.52
210
0.0
220
-1.0
230
-3.080119808197454E-16
100
AcDbArc
 50
-9.814248
 51
9.814248
  0
LINE
  5
C6
330
1F
100
AcDbEntity
  8
1
 62
     7
100
AcDbLine
 10
298.0
 20
143.39582
 30
29.25
 11
298.0
 21
143.39582
 31
24.25
  0
LINE
  5
C7
330
1F
100
AcDbEntity
  8
1
 62
     7
100
AcDbLine
 10
350.0
 20
6.0
 30
5.5
 11
350.0
 21
11.0
 31
5.5
  0
ARC
  5
C8
330
1F
100
AcDbEntity
  8
1
 62
     7
100
AcDbCircle
 10
-285.767022
 20
55.0
 30
0.0
 40
4.65
210
0.0
220
1.0
230
0.0
100
AcDbArc
 50
7.413674
 51
172.586326
  0
LINE
  5
C9
330
1F
100
AcDbEntity
  8
1
 62
     7
100
AcDbLine
 10
70.0
 20
168.39582
 30
25.5
 11
70.0
 21
168.39582
 31
30.5
  0
LINE
  5
CA
330
1F
100
AcDbEntity
  8
1
 62
     7
100
AcDbLine
 10
45.0
 20
32.0
 30
25.5
 11
45.0
 21
37.0
 31
25.5
  0
CIRCLE
  5
CB
330
1F
100
AcDbEntity
  8
1
 62
     7
100
AcDbCircle
 10
-101.088509
 20
25.0
 30
2.7
 40
2.22
210
0.0
220
1.0
230
0.0
  0
LINE
  5
CC
330
1F
100
AcDbEntity
  8
1
 62
     7
100
AcDbLine
 10
347.33
 20
6.0
 30
14.999997
 11
347.33
 21
0.0
 31
14.999997
  0
LINE
  5
CD
330
1F
100
AcDbEntity
  8
1
 62
     7
100
AcDbLine
 10
350.0
 20
6.0
 30
74.5
 11
0.0
 21
6.0
 31
74.5
  0
CIRCLE
  5
CE
330
1F
100
AcDbEntity
  8
1
 62
     7
100
AcDbCircle
 10
57.5
 20
-89.5
 30
-37.0
 40
4.0
210
0.0
220
-1.0
230
-3.080119808197454E-16
  0
LINE
  5
CF
330
1F
100
AcDbEntity
  8
1
 62
     7
100
AcDbLine
 10
350.0
 20
36.0
 30
49.5
 11
0.0
 21
36.0
 31
49.5
  0
ARC
  5
D0
330
1F
100
AcDbEntity
  8
1
 62
     7
100
AcDbCircle
 10
-101.088509
 20
46.45
 30
6.0
 40
31.44708737294595
210
0.0
220
1.0
230
0.0
100
AcDbArc
 50
191.835452
 51
348.164548
  0
LINE
  5
D1
330
1F
100
AcDbEntity
  8
1
 62
     7
100
AcDbLine
 10
0.0
 20
6.0
 30
40.0
 11
0.0
 21
0.0
 31
40.0
  0
ARC
  5
D2
330
1F
100
AcDbEntity
  8
1
 62
     7
100
AcDbCircle
 10
302.5
 20
127.39582
 30
29.25
 40
4.5
100
AcDbArc
 50
-180.0
 51
0.0
  0
LINE
  5
D3
330
1F
100
AcDbEntity
  8
1
 62
     7
100
AcDbLine
 10
307.0
 20
127.39582
 30
29.25
 11
307.0
 21
127.39582
 31
24.25
  0
LINE
  5
D4
330
1F
100
AcDbEntity
  8
1
 62
     7
100
AcDbLine
 10
349.77
 20
6.0
 30
0.0
 11
349.77
 21
0.0
 31
0.0
  0
LINE
  5
D5
330
1F
100
AcDbEntity
  8
1
 62
     7
100
AcDbLine
 10
8.75
 20
6.0
 30
40.0
 11
0.0
 21
6.0
 31
40.0
  0
LINE
  5
D6
330
1F
100
AcDbEntity
  8
1
 62
     7
100
AcDbLine
 10
397.77
 20
15.0
 30
9.5
 11
397.77
 21
15.0
 31
24.5
  0
LINE
  5
D7
330
1F
100
AcDbEntity
  8
1
 62
     7
100
AcDbLine
 10
0.0
 20
0.0
 30
0.0
 11
349.77
 21
0.0
 31
0.0
  0
LINE
  5
D8
330
1F
100
AcDbEntity
  8
1
 62
     7
100
AcDbLine
 10
349.77
 20
6.0
 30
14.999997
 11
349.77
 21
0.0
 31
14.999997
  0
LINE
  5
D9
330
1F
100
AcDbEntity
  8
1
 62
     7
100
AcDbLine
 10
96.477382
 20
0.0
 30
24.4
 11
96.477382
 21
0.27
 31
24.4
  0
ARC
  5
DA
330
1F
100
AcDbEntity
  8
1
 62
     7
100
AcDbCircle
 10
302.5
 20
127.39582
 30
24.25
 40
4.5
100
AcDbArc
 50
-180.0
 51
0.0
  0
LINE
  5
DB
330
1F
100
AcDbEntity
  8
1
 62
     7
100
AcDbLine
 10
105.699637
 20
0.0
 30
25.6
 11
96.477382
 21
0.0
 31
25.6
  0
CIRCLE
  5
DC
330
1F
100
AcDbEntity
  8
1
 62
     7
100
AcDbCircle
 10
-39.53
 20
55.0
 30
3.690846
 40
2.148304901297135
210
0.0
220
1.0
230
0.0
  0
LINE
  5
DD
330
1F
100
AcDbEntity
  8
1
 62
     7
100
AcDbLine
 10
349.77
 20
6.0
 30
14.999997
 11
349.77
 21
0.0
 31
14.999997
  0
CIRCLE
  5
DE
330
1F
100
AcDbEntity
  8
1
 62
     7
100
AcDbCircle
 10
101.09
 20
25.0
 30
-6.0
 40
2.75
210
-2.478176394252566E-16
220
-1.0
230
1.387778780781435E-16
  0
CIRCLE
  5
DF
330
1F
100
AcDbEntity
  8
1
 62
     7
100
AcDbCircle
 10
36.0
 20
17.0
 30
-6.0
 40
2.75
210
0.0
220
-1.0
230
-3.080119808197454E-16
  0
CIRCLE
  5
E0
330
1F
100
AcDbEntity
  8
1
 62
     7
100
AcDbCircle
 10
-39.53
 20
55.0
 30
2.7
 40
2.22
210
0.0
220
1.0
230
0.0
  0
ARC
  5
E1
330
1F
100
AcDbEntity
  8
1
 62
     7
100
AcDbCircle
 10
-101.088509
 20
25.0
 30
0.0
 40
4.65
210
0.0
220
1.0
230
0.0
100
AcDbArc
 50
187.413674
 51
352.586326
  0
SPLINE
  5
E2
330
1F
100
AcDbEntity
  8
1
 62
     7
100
AcDbSpline
210
0.0
220
0.0
230
1.0
 70
     8
 71
     3
 72
     8
 73
     4
 74
     0
 42
0.000000001
 43
0.0000000001
 40
0.0
 40
0.0
 40
0.0
 40
0.0
 40
1.0
 40
1.0
 40
1.0
 40
1.0
 10
36.06151329828121
 20
1.399999999999954
 30
55.59999999999999
 10
35.67995740520109
 20
1.024027971275282
 30
55.59999999999999
 10
35.29923940361631
 20
0.6471875289962007
 30
55.59999999999999
 10
34.91887215531818
 20
0.2699999999999644
 30
55.59999999999999
  0
LINE
  5
E3
330
1F
100
AcDbEntity
  8
1
 62
     7
100
AcDbLine
 10
290.0
 20
32.0
 30
-119.5
 11
290.0
 21
32.0
 31
25.5
  0
CIRCLE
  5
E4
330
1F
100
AcDbEntity
  8
1
 62
     7
100
AcDbCircle
 10
39.53
 20
55.0
 30
-2.25
 40
2.75
210
0.0
220
-1.0
230
0.0
  0
ARC
  5
E5
330
1F
100
AcDbEntity
  8
1
 62
     7
100
AcDbCircle
 10
-101.088509
 20
25.0
 30
0.27
 40
4.65
210
0.0
220
1.0
230
0.0
100
AcDbArc
 50
7.413674
 51
172.586326
  0
LINE
  5
E6
330
1F
100
AcDbEntity
  8
1
 62
     7
100
AcDbLine
 10
0.0
 20
36.0
 30
44.5
 11
0.0
 21
36.0
 31
49.5
  0
CIRCLE
  5
E7
330
1F
100
AcDbEntity
  8
1
 62
     7
100
AcDbCircle
 10
297.0
 20
4.932273
 30
-157.047885
 40
9.5
210
-7.943713993935487E-15
220
-0.4226182617406997
230
-0.9063077870366501
  0
LINE
  5
E8
330
1F
100
AcDbEntity
  8
1
 62
     7
100
AcDbLine
 10
70.0
 20
168.39582
 30
25.5
 11
45.0
 21
168.39582
 31
25.5
  0
LINE
  5
E9
330
1F
100
AcDbEntity
  8
1
 62
     7
100
AcDbLine
 10
335.0
 20
11.0
 30
55.5
 11
360.0
 21
11.0
 31
55.5
  0
CIRCLE
  5
EA
330
1F
100
AcDbEntity
  8
1
 62
     7
100
AcDbCircle
 10
-302.5
 20
-89.5
 30
32.0
 40
6.35
210
0.0
220
1.0
230
0.0
  0
LINE
  5
EB
330
1F
100
AcDbEntity
  8
1
 62
     7
100
AcDbLine
 10
70.309966
 20
6.0
 30
40.000149
 11
70.309966
 21
0.0
 31
40.000149
  0
ARC
  5
EC
330
1F
100
AcDbEntity
  8
1
 62
     7
100
AcDbCircle
 10
-57.5
 20
127.39582
 30
-30.5
 40
4.5
210
-9.673913673540741E-15
220
0.0
230
-1.0
100
AcDbArc
 50
-180.0
 51
0.0
  0
LINE
  5
ED
330
1F
100
AcDbEntity
  8
1
 62
     7
100
AcDbLine
 10
290.0
 20
12.0
 30
29.25
 11
290.0
 21
12.0
 31
24.25
  0
LINE
  5
EE
330
1F
100
AcDbEntity
  8
1
 62
     7
100
AcDbLine
 10
62.0
 20
143.39582
 30
30.5
 11
62.0
 21
127.39582
 31
30.5
  0
CIRCLE
  5
EF
330
1F
100
AcDbEntity
  8
1
 62
     7
100
AcDbCircle
 10
-101.088509
 20
25.0
 30
6.0
 40
2.75
210
0.0
220
1.0
230
0.0
  0
ARC
  5
F0
330
1F
100
AcDbEntity
  8
1
 62
     7
100
AcDbCircle
 10
285.767022
 20
33.55
 30
-6.0
 40
31.45
210
0.0
220
-1.0
230
0.0
100
AcDbArc
 50
11.834617
 51
169.036409
  0
LINE
  5
F1
330
1F
100
AcDbEntity
  8
1
 62
     7
100
AcDbLine
 10
349.77
 20
0.0
 30
80.0
 11
349.77
 21
0.0
 31
14.999997
  0
LINE
  5
F2
330
1F
100
AcDbEntity
  8
1
 62
     7
100
AcDbLine
 10
315.0
 20
168.39582
 30
29.25
 11
315.0
 21
12.0
 31
29.25
  0
SPLINE
  5
F3
330
1F
100
AcDbEntity
  8
1
 62
     7
100
AcDbSpline
210
0.0
220
0.0
230
1.0
 70
     8
 71
     3
 72
     8
 73
     4
 74
     0
 42
0.000000001
 43
0.0000000001
 40
0.0
 40
0.0
 40
0.0
 40
0.0
 40
1.0
 40
1.0
 40
1.0
 40
1.0
 10
289.2355082070083
 20
1.399999999999948
 30
55.59999999999999
 10
289.6170709533136
 20
1.024021218343295
 30
55.59999999999999
 10
289.9977838913553
 20
0.6471857542750469
 30
55.59999999999999
 10
290.3781493499713
 20
0.269999999999952
 30
55.59999999999999
  0
SPLINE
  5
F4
330
1F
100
AcDbEntity
  8
1
 62
     7
100
AcDbSpline
210
0.0
220
0.0
230
1.0
 70
     8
 71
     3
 72
     8
 73
     4
 74
     0
 42
0.000000001
 43
0.0000000001
 40
0.0
 40
0.0
 40
0.0
 40
0.0
 40
1.0
 40
1.0
 40
1.0
 40
1.0
 10
96.47738161143538
 20
0.2700000000000025
 30
24.40000000000001
 10
96.85775169406669
 20
0.6471903396355342
 30
24.4
 10
97.23847603099344
 20
1.024037006757219
 30
24.4
 10
97.62002275439841
 20
1.399999999999982
 30
24.4
  0
LINE
  5
F5
330
1F
100
AcDbEntity
  8
1
 62
     7
100
AcDbLine
 10
0.0
 20
11.0
 30
30.5
 11
0.0
 21
36.0
 31
30.5
  0
LINE
  5
F6
330
1F
100
AcDbEntity
  8
1
 62
     7
100
AcDbLine
 10
350.0
 20
6.0
 30
35.5
 11
0.0
 21
6.0
 31
35.5
  0
LINE
  5
F7
330
1F
100
AcDbEntity
  8
1
 62
     7
100
AcDbLine
 10
290.0
 20
32.0
 30
25.5
 11
315.0
 21
32.0
 31
25.5
  0
LINE
  5
F8
330
1F
100
AcDbEntity
  8
1
 62
     7
100
AcDbLine
 10
70.0
 20
37.0
 30
25.5
 11
70.0
 21
37.0
 31
-119.5
  0
LINE
  5
F9
330
1F
100
AcDbEntity
  8
1
 62
     7
100
AcDbLine
 10
34.918872
 20
0.27
 30
55.6
 11
34.918872
 21
0.0
 31
55.6
  0
SPLINE
  5
FA
330
1F
100
AcDbEntity
  8
1
 62
     7
100
AcDbSpline
210
0.0
220
0.0
230
1.0
 70
     8
 71
     3
 72
     8
 73
     4
 74
     0
 42
0.000000001
 43
0.0000000001
 40
0.0
 40
0.0
 40
0.0
 40
0.0
 40
1.0
 40
1.0
 40
1.0
 40
1.0
 10
290.3781493499713
 20
0.269999999999952
 30
54.40000000000001
 10
289.9977838913553
 20
0.6471857542750465
 30
54.40000000000001
 10
289.6170709533136
 20
1.024021218343294
 30
54.40000000000001
 10
289.2355082070083
 20
1.399999999999947
 30
54.4
  0
LINE
  5
FB
330
1F
100
AcDbEntity
  8
1
 62
     7
100
AcDbLine
 10
307.0
 20
127.39582
 30
24.25
 11
307.0
 21
143.39582
 31
24.25
  0
LINE
  5
FC
330
1F
100
AcDbEntity
  8
1
 62
     7
100
AcDbLine
 10
350.0
 20
11.0
 30
30.5
 11
350.0
 21
36.0
 31
30.5
  0
CIRCLE
  5
FD
330
1F
100
AcDbEntity
  8
1
 62
     7
100
AcDbCircle
 10
-285.767022
 20
55.0
 30
4.3
 40
2.5
210
0.0
220
1.0
230
0.0
  0
CIRCLE
  5
FE
330
1F
100
AcDbEntity
  8
1
 62
     7
100
AcDbCircle
 10
285.767022
 20
55.0
 30
-2.82418
 40
2.14830490129714
210
0.0
220
-1.0
230
0.0
  0
LINE
  5
FF
330
1F
100
AcDbEntity
  8
1
 62
     7
100
AcDbLine
 10
8.75
 20
6.0
 30
40.0
 11
8.75
 21
0.0
 31
40.0
  0
LINE
  5
100
330
1F
100
AcDbEntity
  8
1
 62
     7
100
AcDbLine
 10
53.0
 20
127.39582
 30
25.5
 11
53.0
 21
127.39582
 31
30.5
  0
LINE
  5
101
330
1F
100
AcDbEntity
  8
1
 62
     7
100
AcDbLine
 10
131.867053
 20
6.0
 30
40.000149
 11
131.867053
 21
0.0
 31
40.000149
  0
LINE
  5
102
330
1F
100
AcDbEntity
  8
1
 62
     7
100
AcDbLine
 10
315.0
 20
12.0
 30
29.25
 11
315.0
 21
12.0
 31
24.25
  0
LINE
  5
103
330
1F
100
AcDbEntity
  8
1
 62
     7
100
AcDbLine
 10
315.0
 20
32.0
 30
-119.5
 11
315.0
 21
32.0
 31
25.5
  0
LINE
  5
104
330
1F
100
AcDbEntity
  8
1
 62
     7
100
AcDbLine
 10
297.77
 20
15.0
 30
24.5
 11
297.77
 21
11.0
 31
24.5
  0
LINE
  5
105
330
1F
100
AcDbEntity
  8
1
 62
     7
100
AcDbLine
 10
44.141128
 20
0.27
 30
55.6
 11
44.141128
 21
0.0
 31
55.6
  0
LINE
  5
106
330
1F
100
AcDbEntity
  8
1
 62
     7
100
AcDbLine
 10
290.0
 20
12.0
 30
29.25
 11
290.0
 21
168.39582
 31
29.25
  0
LINE
  5
107
330
1F
100
AcDbEntity
  8
1
 62
     7
100
AcDbLine
 10
45.0
 20
37.0
 30
25.5
 11
70.0
 21
37.0
 31
25.5
  0
CIRCLE
  5
108
330
1F
100
AcDbEntity
  8
1
 62
     7
100
AcDbCircle
 10
-39.53
 20
55.0
 30
4.3
 40
2.5
210
0.0
220
1.0
230
0.0
  0
LINE
  5
109
330
1F
100
AcDbEntity
  8
1
 62
     7
100
AcDbLine
 10
350.0
 20
36.0
 30
35.5
 11
0.0
 21
36.0
 31
35.5
  0
LINE
  5
10A
330
1F
100
AcDbEntity
  8
1
 62
     7
100
AcDbLine
 10
297.77
 20
15.0
 30
24.5
 11
397.77
 21
15.0
 31
24.5
  0
CIRCLE
  5
10B
330
1F
100
AcDbEntity
  8
1
 62
     7
100
AcDbCircle
 10
10.0
 20
17.0
 30
-6.0
 40
2.5
210
-2.478176394252566E-16
220
-1.0
230
1.387778780781435E-16
  0
CIRCLE
  5
10C
330
1F
100
AcDbEntity
  8
1
 62
     7
100
AcDbCircle
 10
385.77
 20
17.0
 30
-11.0
 40
2.5
210
0.0
220
-1.0
230
0.0
  0
LINE
  5
10D
330
1F
100
AcDbEntity
  8
1
 62
     7
100
AcDbLine
 10
335.0
 20
11.0
 30
55.5
 11
335.0
 21
15.0
 31
55.5
  0
LINE
  5
10E
330
1F
100
AcDbEntity
  8
1
 62
     7
100
AcDbLine
 10
42.998487
 20
1.4
 30
54.4
 11
36.061513
 21
1.4
 31
54.4
  0
CIRCLE
  5
10F
330
1F
100
AcDbEntity
  8
1
 62
     7
100
AcDbCircle
 10
70.0
 20
28.0
 30
69.5
 40
5.0
  0
LINE
  5
110
330
1F
100
AcDbEntity
  8
1
 62
     7
100
AcDbLine
 10
70.0
 20
12.0
 30
25.5
 11
70.0
 21
168.39582
 31
25.5
  0
LINE
  5
111
330
1F
100
AcDbEntity
  8
1
 62
     7
100
AcDbLine
 10
349.77
 20
6.0
 30
0.0
 11
349.77
 21
6.0
 31
14.999997
  0
LINE
  5
112
330
1F
100
AcDbEntity
  8
1
 62
     7
100
AcDbLine
 10
96.477382
 20
0.0
 30
24.4
 11
105.699637
 21
0.0
 31
24.4
  0
LINE
  5
113
330
1F
100
AcDbEntity
  8
1
 62
     7
100
AcDbLine
 10
350.0
 20
11.0
 30
30.5
 11
0.0
 21
11.0
 31
30.5
  0
LINE
  5
114
330
1F
100
AcDbEntity
  8
1
 62
     7
100
AcDbLine
 10
360.0
 20
15.0
 30
69.5
 11
335.0
 21
15.0
 31
69.5
  0
ARC
  5
115
330
1F
100
AcDbEntity
  8
1
 62
     7
100
AcDbCircle
 10
-285.767022
 20
55.0
 30
1.4
 40
3.52
210
0.0
220
1.0
230
0.0
100
AcDbArc
 50
-9.814248
 51
9.814248
  0
LINE
  5
116
330
1F
100
AcDbEntity
  8
1
 62
     7
100
AcDbLine
 10
350.0
 20
11.0
 30
74.5
 11
350.0
 21
6.0
 31
74.5
  0
LINE
  5
117
330
1F
100
AcDbEntity
  8
1
 62
     7
100
AcDbLine
 10
347.33
 20
6.0
 30
14.999997
 11
347.33
 21
0.0
 31
14.999997
  0
ARC
  5
118
330
1F
100
AcDbEntity
  8
1
 62
     7
100
AcDbCircle
 10
39.53
 20
33.55
 30
0.0
 40
31.44854368647295
210
0.0
220
-1.0
230
0.0
100
AcDbArc
 50
11.835452
 51
168.164826
  0
ARC
  5
119
330
1F
100
AcDbEntity
  8
1
 62
     7
100
AcDbCircle
 10
-39.53
 20
55.0
 30
0.0
 40
4.65
210
0.0
220
1.0
230
0.0
100
AcDbArc
 50
7.413674
 51
172.586326
  0
LINE
  5
11A
330
1F
100
AcDbEntity
  8
1
 62
     7
100
AcDbLine
 10
105.699637
 20
0.0
 30
24.4
 11
105.699637
 21
0.27
 31
24.4
  0
ARC
  5
11B
330
1F
100
AcDbEntity
  8
1
 62
     7
100
AcDbCircle
 10
-101.088509
 20
25.0
 30
0.27
 40
4.65
210
0.0
220
1.0
230
0.0
100
AcDbArc
 50
187.413674
 51
352.586326
  0
CIRCLE
  5
11C
330
1F
100
AcDbEntity
  8
1
 62
     7
100
AcDbCircle
 10
-101.088509
 20
25.0
 30
0.0
 40
5.0
210
0.0
220
1.0
230
0.0
  0
CIRCLE
  5
11D
330
1F
100
AcDbEntity
  8
1
 62
     7
100
AcDbCircle
 10
-297.0
 20
4.932273
 30
79.047885
 40
5.0
210
1.006203772565162E-14
220
0.4226182617406979
230
0.9063077870366508
  0
ARC
  5
11E
330
1F
100
AcDbEntity
  8
1
 62
     7
100
AcDbCircle
 10
-101.088509
 20
46.45
 30
0.0
 40
31.44708737294595
210
0.0
220
1.0
230
0.0
100
AcDbArc
 50
191.835452
 51
348.164548
  0
CIRCLE
  5
11F
330
1F
100
AcDbEntity
  8
1
 62
     7
100
AcDbCircle
 10
39.53
 20
55.0
 30
-11.0
 40
2.75
210
0.0
220
-1.0
230
0.0
  0
LINE
  5
120
330
1F
100
AcDbEntity
  8
1
 62
     7
100
AcDbLine
 10
360.0
 20
11.0
 30
69.5
 11
335.0
 21
11.0
 31
69.5
  0
ARC
  5
121
330
1F
100
AcDbEntity
  8
1
 62
     7
100
AcDbCircle
 10
-101.088509
 20
46.45
 30
6.0
 40
31.44708737294595
210
0.0
220
1.0
230
0.0
100
AcDbArc
 50
191.835452
 51
348.164548
  0
ARC
  5
122
330
1F
100
AcDbEntity
  8
1
 62
     7
100
AcDbCircle
 10
39.53
 20
33.55
 30
0.0
 40
31.44854368647295
210
0.0
220
-1.0
230
0.0
100
AcDbArc
 50
11.835452
 51
168.164826
  0
ARC
  5
123
330
1F
100
AcDbEntity
  8
1
 62
     7
100
AcDbCircle
 10
-224.21
 20
46.45
 30
6.0
 40
31.45145887151285
210
0.0
220
1.0
230
0.0
100
AcDbArc
 50
192.707829
 51
348.165383
  0
ARC
  5
124
330
1F
100
AcDbEntity
  8
1
 62
     7
100
AcDbCircle
 10
-224.21
 20
46.45
 30
6.0
 40
31.45145887151295
210
0.0
220
1.0
230
0.0
100
AcDbArc
 50
192.707829
 51
348.165383
  0
LINE
  5
125
330
1F
100
AcDbEntity
  8
1
 62
     7
100
AcDbLine
 10
290.0
 20
37.0
 30
-119.5
 11
315.0
 21
37.0
 31
-119.5
  0
LINE
  5
126
330
1F
100
AcDbEntity
  8
1
 62
     7
100
AcDbLine
 10
360.0
 20
11.0
 30
69.5
 11
360.0
 21
15.0
 31
69.5
  0
LINE
  5
127
330
1F
100
AcDbEntity
  8
1
 62
     7
100
AcDbLine
 10
350.0
 20
6.0
 30
35.5
 11
350.0
 21
6.0
 31
5.5
  0
LINE
  5
128
330
1F
100
AcDbEntity
  8
1
 62
     7
100
AcDbLine
 10
45.0
 20
32.0
 30
-119.5
 11
70.0
 21
32.0
 31
-119.5
  0
LINE
  5
129
330
1F
100
AcDbEntity
  8
1
 62
     7
100
AcDbLine
 10
193.427084
 20
6.0
 30
39.999701
 11
193.427084
 21
0.0
 31
39.999701
  0
LINE
  5
12A
330
1F
100
AcDbEntity
  8
1
 62
     7
100
AcDbLine
 10
45.0
 20
32.0
 30
25.5
 11
70.0
 21
32.0
 31
25.5
  0
CIRCLE
  5
12B
330
1F
100
AcDbEntity
  8
1
 62
     7
100
AcDbCircle
 10
285.767022
 20
55.0
 30
-11.5
 40
2.5
210
-2.478176394252566E-16
220
-1.0
230
1.387778780781435E-16
  0
LINE
  5
12C
330
1F
100
AcDbEntity
  8
1
 62
     7
100
AcDbLine
 10
316.54851
 20
6.0
 30
40.0
 11
316.54851
 21
0.0
 31
40.0
  0
ARC
  5
12D
330
1F
100
AcDbEntity
  8
1
 62
     7
100
AcDbCircle
 10
-347.33
 20
46.45
 30
0.0
 40
31.4500025475813
210
0.0
220
1.0
230
0.0
100
AcDbArc
 50
270.0
 51
348.165383
  0
LINE
  5
12E
330
1F
100
AcDbEntity
  8
1
 62
     7
100
AcDbLine
 10
350.0
 20
36.0
 30
44.5
 11
350.0
 21
36.0
 31
49.5
  0
CIRCLE
  5
12F
330
1F
100
AcDbEntity
  8
1
 62
     7
100
AcDbCircle
 10
70.0
 20
4.932273
 30
-157.047885
 40
9.5
210
-7.943713993935487E-15
220
-0.4226182617406997
230
-0.9063077870366501
  0
ARC
  5
130
330
1F
100
AcDbEntity
  8
1
 62
     7
100
AcDbCircle
 10
162.647022
 20
33.55
 30
-6.0
 40
31.44854368647305
210
0.0
220
-1.0
230
0.0
100
AcDbArc
 50
11.834617
 51
168.164548
  0
LINE
  5
131
330
1F
100
AcDbEntity
  8
1
 62
     7
100
AcDbLine
 10
45.0
 20
168.39582
 30
25.5
 11
45.0
 21
168.39582
 31
30.5
  0
LINE
  5
132
330
1F
100
AcDbEntity
  8
1
 62
     7
100
AcDbLine
 10
307.0
 20
127.39582
 30
29.25
 11
307.0
 21
143.39582
 31
29.25
  0
LINE
  5
133
330
1F
100
AcDbEntity
  8
1
 62
     7
100
AcDbLine
 10
0.0
 20
11.0
 30
5.5
 11
0.0
 21
11.0
 31
30.5
  0
LINE
  5
134
330
1F
100
AcDbEntity
  8
1
 62
     7
100
AcDbLine
 10
8.75
 20
6.0
 30
40.0
 11
0.0
 21
6.0
 31
40.0
  0
LINE
  5
135
330
1F
100
AcDbEntity
  8
1
 62
     7
100
AcDbLine
 10
350.0
 20
11.0
 30
49.5
 11
0.0
 21
11.0
 31
49.5
  0
LINE
  5
136
330
1F
100
AcDbEntity
  8
1
 62
     7
100
AcDbLine
 10
397.77
 20
11.0
 30
9.5
 11
397.77
 21
15.0
 31
9.5
  0
LINE
  5
137
330
1F
100
AcDbEntity
  8
1
 62
     7
100
AcDbLine
 10
0.0
 20
0.0
 30
40.0
 11
0.0
 21
0.0
 31
0.0
  0
LINE
  5
138
330
1F
100
AcDbEntity
  8
1
 62
     7
100
AcDbLine
 10
62.0
 20
143.39582
 30
25.5
 11
62.0
 21
127.39582
 31
25.5
  0
LINE
  5
139
330
1F
100
AcDbEntity
  8
1
 62
     7
100
AcDbLine
 10
70.0
 20
32.0
 30
25.5
 11
70.0
 21
37.0
 31
25.5
  0
LINE
  5
13A
330
1F
100
AcDbEntity
  8
1
 62
     7
100
AcDbLine
 10
42.998487
 20
1.4
 30
55.6
 11
36.061513
 21
1.4
 31
55.6
  0
LINE
  5
13B
330
1F
100
AcDbEntity
  8
1
 62
     7
100
AcDbLine
 10
105.699637
 20
0.27
 30
25.6
 11
105.699637
 21
0.0
 31
25.6
  0
CIRCLE
  5
13C
330
1F
100
AcDbEntity
  8
1
 62
     7
100
AcDbCircle
 10
285.77
 20
55.0
 30
-6.0
 40
2.75
210
-2.478176394252566E-16
220
-1.0
230
1.387778780781435E-16
  0
LINE
  5
13D
330
1F
100
AcDbEntity
  8
1
 62
     7
100
AcDbLine
 10
290.0
 20
12.0
 30
24.25
 11
290.0
 21
168.39582
 31
24.25
  0
LINE
  5
13E
330
1F
100
AcDbEntity
  8
1
 62
     7
100
AcDbLine
 10
290.0
 20
168.39582
 30
29.25
 11
315.0
 21
168.39582
 31
29.25
  0
CIRCLE
  5
13F
330
1F
100
AcDbEntity
  8
1
 62
     7
100
AcDbCircle
 10
-36.0
 20
17.0
 30
0.0
 40
5.0
210
0.0
220
1.0
230
0.0
  0
ARC
  5
140
330
1F
100
AcDbEntity
  8
1
 62
     7
100
AcDbCircle
 10
39.53
 20
33.55
 30
-6.0
 40
31.44854368647295
210
0.0
220
-1.0
230
0.0
100
AcDbArc
 50
11.835452
 51
168.164826
  0
CIRCLE
  5
141
330
1F
100
AcDbEntity
  8
1
 62
     7
100
AcDbCircle
 10
10.0
 20
17.0
 30
-11.0
 40
2.5
210
0.0
220
-1.0
230
0.0
  0
LINE
  5
142
330
1F
100
AcDbEntity
  8
1
 62
     7
100
AcDbLine
 10
350.0
 20
11.0
 30
5.5
 11
350.0
 21
11.0
 31
30.5
  0
LINE
  5
143
330
1F
100
AcDbEntity
  8
1
 62
     7
100
AcDbLine
 10
290.0
 20
37.0
 30
-119.5
 11
290.0
 21
32.0
 31
-119.5
  0
CIRCLE
  5
144
330
1F
100
AcDbEntity
  8
1
 62
     7
100
AcDbCircle
 10
-285.767022
 20
55.0
 30
0.0
 40
5.0
210
0.0
220
1.0
230
0.0
  0
SPLINE
  5
145
330
1F
100
AcDbEntity
  8
1
 62
     7
100
AcDbSpline
210
0.0
220
0.0
230
1.0
 70
     8
 71
     3
 72
     8
 73
     4
 74
     0
 42
0.000000001
 43
0.0000000001
 40
0.0
 40
0.0
 40
0.0
 40
0.0
 40
1.0
 40
1.0
 40
1.0
 40
1.0
 10
97.62002275439841
 20
1.399999999999992
 30
25.59999999999999
 10
97.23846686131827
 20
1.024027971275321
 30
25.59999999999999
 10
96.85774885973351
 20
0.647187528996239
 30
25.59999999999999
 10
96.47738161143538
 20
0.2700000000000029
 30
25.59999999999999
  0
LINE
  5
146
330
1F
100
AcDbEntity
  8
1
 62
     7
100
AcDbLine
 10
0.0
 20
6.0
 30
44.5
 11
0.0
 21
36.0
 31
44.5
  0
CIRCLE
  5
147
330
1F
100
AcDbEntity
  8
1
 62
     7
100
AcDbCircle
 10
297.0
 20
4.932273
 30
-149.047885
 40
9.5
210
-7.943713993935487E-15
220
-0.4226182617406997
230
-0.9063077870366501
  0
CIRCLE
  5
148
330
1F
100
AcDbEntity
  8
1
 62
     7
100
AcDbCircle
 10
302.5
 20
-89.5
 30
-34.35
 40
4.0
210
0.0
220
-1.0
230
0.0
  0
CIRCLE
  5
149
330
1F
100
AcDbEntity
  8
1
 62
     7
100
AcDbCircle
 10
-101.088509
 20
25.0
 30
3.690846
 40
2.148304901297135
210
0.0
220
1.0
230
0.0
  0
ARC
  5
14A
330
1F
100
AcDbEntity
  8
1
 62
     7
100
AcDbCircle
 10
302.5
 20
143.39582
 30
29.25
 40
4.5
100
AcDbArc
 50
0.0
 51
180.0
  0
LINE
  5
14B
330
1F
100
AcDbEntity
  8
1
 62
     7
100
AcDbLine
 10
70.0
 20
12.0
 30
30.5
 11
70.0
 21
168.39582
 31
30.5
  0
LINE
  5
14C
330
1F
100
AcDbEntity
  8
1
 62
     7
100
AcDbLine
 10
307.0
 20
143.39582
 30
29.25
 11
307.0
 21
143.39582
 31
24.25
  0
LINE
  5
14D
330
1F
100
AcDbEntity
  8
1
 62
     7
100
AcDbLine
 10
335.0
 20
15.0
 30
55.5
 11
360.0
 21
15.0
 31
55.5
  0
ARC
  5
14E
330
1F
100
AcDbEntity
  8
1
 62
     7
100
AcDbCircle
 10
-347.33
 20
46.45
 30
6.0
 40
31.4500025475813
210
0.0
220
1.0
230
0.0
100
AcDbArc
 50
270.0
 51
348.165383
  0
LINE
  5
14F
330
1F
100
AcDbEntity
  8
1
 62
     7
100
AcDbLine
 10
0.0
 20
6.0
 30
80.0
 11
0.0
 21
0.0
 31
80.0
  0
ARC
  5
150
330
1F
100
AcDbEntity
  8
1
 62
     7
100
AcDbCircle
 10
-224.21
 20
46.45
 30
0.0
 40
31.45145887151295
210
0.0
220
1.0
230
0.0
100
AcDbArc
 50
192.707829
 51
348.165383
  0
LINE
  5
151
330
1F
100
AcDbEntity
  8
1
 62
     7
100
AcDbLine
 10
290.378149
 20
0.0
 30
55.6
 11
281.155894
 21
0.0
 31
55.6
  0
CIRCLE
  5
152
330
1F
100
AcDbEntity
  8
1
 62
     7
100
AcDbCircle
 10
-10.0
 20
17.0
 30
0.0
 40
5.0
210
0.0
220
1.0
230
0.0
  0
LINE
  5
153
330
1F
100
AcDbEntity
  8
1
 62
     7
100
AcDbLine
 10
350.0
 20
6.0
 30
5.5
 11
0.0
 21
6.0
 31
5.5
  0
ARC
  5
154
330
1F
100
AcDbEntity
  8
1
 62
     7
100
AcDbCircle
 10
-224.21
 20
46.45
 30
0.0
 40
31.45145887151285
210
0.0
220
1.0
230
0.0
100
AcDbArc
 50
192.707829
 51
348.165383
  0
LINE
  5
155
330
1F
100
AcDbEntity
  8
1
 62
     7
100
AcDbLine
 10
298.0
 20
143.39582
 30
29.25
 11
298.0
 21
127.39582
 31
29.25
  0
LINE
  5
156
330
1F
100
AcDbEntity
  8
1
 62
     7
100
AcDbLine
 10
297.77
 20
15.0
 30
9.5
 11
297.77
 21
15.0
 31
24.5
  0
LINE
  5
157
330
1F
100
AcDbEntity
  8
1
 62
     7
100
AcDbLine
 10
70.309966
 20
6.0
 30
40.000149
 11
70.309966
 21
0.0
 31
40.000149
  0
LINE
  5
158
330
1F
100
AcDbEntity
  8
1
 62
     7
100
AcDbLine
 10
349.77
 20
6.0
 30
80.0
 11
349.77
 21
0.0
 31
80.0
  0
LINE
  5
159
330
1F
100
AcDbEntity
  8
1
 62
     7
100
AcDbLine
 10
298.0
 20
127.39582
 30
29.25
 11
298.0
 21
127.39582
 31
24.25
  0
ARC
  5
15A
330
1F
100
AcDbEntity
  8
1
 62
     7
100
AcDbCircle
 10
-285.767022
 20
55.0
 30
0.27
 40
4.65
210
0.0
220
1.0
230
0.0
100
AcDbArc
 50
7.413674
 51
172.586326
  0
LINE
  5
15B
330
1F
100
AcDbEntity
  8
1
 62
     7
100
AcDbLine
 10
350.0
 20
36.0
 30
44.5
 11
0.0
 21
36.0
 31
44.5
  0
ARC
  5
15C
330
1F
100
AcDbEntity
  8
1
 62
     7
100
AcDbCircle
 10
-101.088509
 20
25.0
 30
1.4
 40
3.52
210
0.0
220
1.0
230
0.0
100
AcDbArc
 50
-9.814248
 51
9.814248
  0
LINE
  5
15D
330
1F
100
AcDbEntity
  8
1
 62
     7
100
AcDbLine
 10
290.0
 20
37.0
 30
25.5
 11
290.0
 21
37.0
 31
-119.5
  0
LINE
  5
15E
330
1F
100
AcDbEntity
  8
1
 62
     7
100
AcDbLine
 10
53.0
 20
143.39582
 30
25.5
 11
53.0
 21
143.39582
 31
30.5
  0
LINE
  5
15F
330
1F
100
AcDbEntity
  8
1
 62
     7
100
AcDbLine
 10
297.77
 20
11.0
 30
24.5
 11
297.77
 21
11.0
 31
9.5
  0
LINE
  5
160
330
1F
100
AcDbEntity
  8
1
 62
     7
100
AcDbLine
 10
350.0
 20
36.0
 30
30.5
 11
0.0
 21
36.0
 31
30.5
  0
LINE
  5
161
330
1F
100
AcDbEntity
  8
1
 62
     7
100
AcDbLine
 10
350.0
 20
11.0
 30
74.5
 11
0.0
 21
11.0
 31
74.5
  0
CIRCLE
  5
162
330
1F
100
AcDbEntity
  8
1
 62
     7
100
AcDbCircle
 10
-70.0
 20
4.932273
 30
79.047885
 40
5.0
210
1.006203772565162E-14
220
0.4226182617406979
230
0.9063077870366508
  0
LINE
  5
163
330
1F
100
AcDbEntity
  8
1
 62
     7
100
AcDbLine
 10
397.77
 20
11.0
 30
24.5
 11
397.77
 21
11.0
 31
9.5
  0
SPLINE
  5
164
330
1F
100
AcDbEntity
  8
1
 62
     7
100
AcDbSpline
210
0.0
220
0.0
230
1.0
 70
     8
 71
     3
 72
     8
 73
     4
 74
     0
 42
0.000000001
 43
0.0000000001
 40
0.0
 40
0.0
 40
0.0
 40
0.0
 40
1.0
 40
1.0
 40
1.0
 40
1.0
 10
42.9984867017188
 20
1.399999999999951
 30
55.59999999999999
 10
43.38004944802415
 20
1.0240212183433
 30
55.59999999999999
 10
43.76076238606587
 20
0.6471857542750605
 30
55.59999999999999
 10
44.14112784468182
 20
0.2699999999999688
 30
55.59999999999999
  0
LINE
  5
165
330
1F
100
AcDbEntity
  8
1
 62
     7
100
AcDbLine
 10
45.0
 20
32.0
 30
-119.5
 11
45.0
 21
32.0
 31
25.5
  0
LINE
  5
166
330
1F
100
AcDbEntity
  8
1
 62
     7
100
AcDbLine
 10
315.0
 20
12.0
 30
29.25
 11
290.0
 21
12.0
 31
29.25
  0
ARC
  5
167
330
1F
100
AcDbEntity
  8
1
 62
     7
100
AcDbCircle
 10
285.767022
 20
33.55
 30
0.0
 40
31.45
210
0.0
220
-1.0
230
0.0
100
AcDbArc
 50
11.834617
 51
169.036409
  0
LINE
  5
168
330
1F
100
AcDbEntity
  8
1
 62
     7
100
AcDbLine
 10
297.77
 20
11.0
 30
24.5
 11
397.77
 21
11.0
 31
24.5
  0
SPLINE
  5
169
330
1F
100
AcDbEntity
  8
1
 62
     7
100
AcDbSpline
210
0.0
220
0.0
230
1.0
 70
     8
 71
     3
 72
     8
 73
     4
 74
     0
 42
0.000000001
 43
0.0000000001
 40
0.0
 40
0.0
 40
0.0
 40
0.0
 40
1.0
 40
1.0
 40
1.0
 40
1.0
 10
281.1558936606077
 20
0.2699999999999617
 30
54.40000000000001
 10
281.536263743239
 20
0.6471903396354892
 30
54.40000000000001
 10
281.9169880801658
 20
1.024037006757164
 30
54.40000000000001
 10
282.2985348035707
 20
1.399999999999922
 30
54.4
  0
CIRCLE
  5
16A
330
1F
100
AcDbEntity
  8
1
 62
     7
100
AcDbCircle
 10
-385.77
 20
17.0
 30
15.0
 40
2.5
210
0.0
220
1.0
230
0.0
  0
CIRCLE
  5
16B
330
1F
100
AcDbEntity
  8
1
 62
     7
100
AcDbCircle
 10
36.0
 20
17.0
 30
-11.0
 40
2.5
210
0.0
220
-1.0
230
0.0
  0
SPLINE
  5
16C
330
1F
100
AcDbEntity
  8
1
 62
     7
100
AcDbSpline
210
0.0
220
0.0
230
1.0
 70
     8
 71
     3
 72
     8
 73
     4
 74
     0
 42
0.000000001
 43
0.0000000001
 40
0.0
 40
0.0
 40
0.0
 40
0.0
 40
1.0
 40
1.0
 40
1.0
 40
1.0
 10
44.14112784468182
 20
0.2699999999999685
 30
54.40000000000001
 10
43.76076238606587
 20
0.64718575427506
 30
54.40000000000001
 10
43.38004944802415
 20
1.0240212183433
 30
54.40000000000001
 10
42.99848670171879
 20
1.399999999999949
 30
54.4
  0
CIRCLE
  5
16D
330
1F
100
AcDbEntity
  8
1
 62
     7
100
AcDbCircle
 10
-57.5
 20
-89.5
 30
32.0
 40
6.35
210
0.0
220
1.0
230
0.0
  0
CIRCLE
  5
16E
330
1F
100
AcDbEntity
  8
1
 62
     7
100
AcDbCircle
 10
285.767022
 20
55.0
 30
-6.0
 40
2.75
210
0.0
220
-1.0
230
-3.080119808197454E-16
  0
VIEWPORT
  5
2A
330
1B
100
AcDbEntity
 67
     1
  8
0
100
AcDbViewport
 10
4.8
 20
4.02
 30
0.0
 40
9.6
 41
8.04
 68
     1
 69
     1
 12
2.8
 22
4.02
 13
0.0
 23
0.0
 14
0.5
 24
0.5
 15
0.5
 25
0.5
 16
0.0
 26
0.0
 36
1.0
 17
0.0
 27
0.0
 37
0.0
 42
50.0
 43
0.0
 44
0.0
 45
8.04
 50
0.0
 51
0.0
 72
   100
 90
    32800
  1

281
     0
 71
     1
 74
     0
110
0.0
120
0.0
130
0.0
111
1.0
121
0.0
131
0.0
112
0.0
122
1.0
132
0.0
 79
     0
146
0.0
  0
ENDSEC
  0
SECTION
  2
OBJECTS
  0
DICTIONARY
  5
C
330
0
100
AcDbDictionary
281
     1
  3
ACAD_GROUP
350
D
  3
ACAD_LAYOUT
350
1A
  3
ACAD_MLINESTYLE
350
17
  3
ACAD_PLOTSETTINGS
350
19
  3
ACAD_PLOTSTYLENAME
350
E
  0
DICTIONARY
  5
D
102
{ACAD_REACTORS
330
C
102
}
330
C
100
AcDbDictionary
281
     1
  0
DICTIONARY
  5
1A
102
{ACAD_REACTORS
330
C
102
}
330
C
100
AcDbDictionary
281
     1
  3
Layout1
350
1E
  3
Layout2
350
26
  3
Model
350
22
  0
DICTIONARY
  5
17
102
{ACAD_REACTORS
330
C
102
}
330
C
100
AcDbDictionary
281
     1
  3
Standard
350
18
  0
DICTIONARY
  5
19
102
{ACAD_REACTORS
330
C
102
}
330
C
100
AcDbDictionary
281
     1
  0
ACDBDICTIONARYWDFLT
  5
E
102
{ACAD_REACTORS
330
C
102
}
330
C
100
AcDbDictionary
281
     1
  3
Normal
350
F
100
AcDbDictionaryWithDefault
340
F
  0
LAYOUT
  5
1E
102
{ACAD_REACTORS
330
1A
102
}
330
1A
100
AcDbPlotSettings
  1

  2
DWF Classic.pc3
  4
ANSI_A_(8.50_x_11.00_Inches)
  6

 40
5.79375
 41
17.793751
 42
5.793747
 43
17.793762
 44
215.899994
 45
279.399994
 46
0.0
 47
0.0
 48
0.0
 49
0.0
140
0.0
141
0.0
142
1.0
143
1.0
 70
   688
 72
     0
 73
     1
 74
     5
  7

 75
    16
147
1.0
148
0.0
149
0.0
100
AcDbLayout
  1
Layout1
 70
     1
 71
     1
 10
0.0
 20
0.0
 11
9.6
 21
8.04
 12
0.0
 22
0.0
 32
0.0
 14
-0.5
 24
-0.5
 34
-0.5
 15
5.0
 25
5.0
 35
5.0
146
0.0
 13
0.0
 23
0.0
 33
0.0
 16
1.0
 26
0.0
 36
0.0
 17
0.0
 27
1.0
 37
0.0
 76
     0
330
1B
331
2A
  0
LAYOUT
  5
26
102
{ACAD_REACTORS
330
1A
102
}
330
1A
100
AcDbPlotSettings
  1

  2

  4

  6

 40
0.0
 41
0.0
 42
0.0
 43
0.0
 44
0.0
 45
0.0
 46
0.0
 47
0.0
 48
0.0
 49
0.0
140
0.0
141
0.0
142
1.0
143
1.0
 70
   688
 72
     0
 73
     0
 74
     5
  7

 75
    16
147
1.0
148
0.0
149
0.0
100
AcDbLayout
  1
Layout2
 70
     1
 71
     2
 10
0.0
 20
0.0
 11
0.0
 21
0.0
 12
0.0
 22
0.0
 32
0.0
 14
0.0
 24
0.0
 34
0.0
 15
0.0
 25
0.0
 35
0.0
146
0.0
 13
0.0
 23
0.0
 33
0.0
 16
1.0
 26
0.0
 36
0.0
 17
0.0
 27
1.0
 37
0.0
 76
     0
330
23
  0
LAYOUT
  5
22
102
{ACAD_REACTORS
330
1A
102
}
330
1A
100
AcDbPlotSettings
  1

  2

  4

  6

 40
0.0
 41
0.0
 42
0.0
 43
0.0
 44
0.0
 45
0.0
 46
0.0
 47
0.0
 48
0.0
 49
0.0
140
0.0
141
0.0
142
1.0
143
1.0
 70
  1712
 72
     0
 73
     0
 74
     0
  7

 75
     0
147
1.0
148
0.0
149
0.0
100
AcDbLayout
  1
Model
 70
     1
 71
     0
 10
-0.5
 20
-0.5
 11
5.0
 21
5.0
 12
0.0
 22
0.0
 32
0.0
 14
-0.5
 24
-0.5
 34
-0.5
 15
5.0
 25
5.0
 35
5.0
146
0.0
 13
0.0
 23
0.0
 33
0.0
 16
1.0
 26
0.0
 36
0.0
 17
0.0
 27
1.0
 37
0.0
 76
     0
330
1F
  0
MLINESTYLE
  5
18
102
{ACAD_REACTORS
330
17
102
}
330
17
100
AcDbMlineStyle
  2
Standard
 70
     0
  3

 62
   256
 51
90.0
 52
90.0
 71
     2
 49
0.5
 62
   256
  6
BYLAYER
 49
-0.5
 62
   256
  6
BYLAYER
  0
ACDBPLACEHOLDER
  5
F
102
{ACAD_REACTORS
330
E
102
}
330
E
  0
ENDSEC
  0
EOF
