  0
SECTION
  2
HEADER
  9
$ACADVER
  1
AC1015
  9
$ACADMAINTVER
 70
     6
  9
$DWGCODEPAGE
  3
ANSI_1252
  9
$INSBASE
 10
0.0
 20
0.0
 30
0.0
  9
$EXTMIN
 10
-0.5
 20
-0.5
 30
-0.5
  9
$EXTMAX
 10
5.0
 20
5.0
 30
5.0
  9
$LIMMIN
 10
-0.5
 20
-0.5
  9
$LIMMAX
 10
5.0
 20
5.0
  9
$ORTHOMODE
 70
     0
  9
$REGENMODE
 70
     1
  9
$FILLMODE
 70
     1
  9
$QTEXTMODE
 70
     0
  9
$MIRRTEXT
 70
     1
  9
$LTSCALE
 40
1.0
  9
$ATTMODE
 70
     1
  9
$TEXTSIZE
 40
0.2
  9
$TRACEWID
 40
0.05
  9
$TEXTSTYLE
  7
Standard
  9
$CLAYER
  8
0
  9
$CELTYPE
  6
ByLayer
  9
$CECOLOR
 62
   256
  9
$CELTSCALE
 40
1.0
  9
$DISPSILH
 70
     0
  9
$DIMSCALE
 40
1.0
  9
$DIMASZ
 40
0.18
  9
$DIMEXO
 40
0.0625
  9
$DIMDLI
 40
0.38
  9
$DIMRND
 40
0.0
  9
$DIMDLE
 40
0.0
  9
$DIMEXE
 40
0.18
  9
$DIMTP
 40
0.0
  9
$DIMTM
 40
0.0
  9
$DIMTXT
 40
0.18
  9
$DIMCEN
 40
0.09
  9
$DIMTSZ
 40
0.0
  9
$DIMTOL
 70
     0
  9
$DIMLIM
 70
     0
  9
$DIMTIH
 70
     1
  9
$DIMTOH
 70
     1
  9
$DIMSE1
 70
     0
  9
$DIMSE2
 70
     0
  9
$DIMTAD
 70
     0
  9
$DIMZIN
 70
     0
  9
$DIMBLK
  1

  9
$DIMASO
 70
     1
  9
$DIMSHO
 70
     1
  9
$DIMPOST
  1

  9
$DIMAPOST
  1

  9
$DIMALT
 70
     0
  9
$DIMALTD
 70
     2
  9
$DIMALTF
 40
25.4
  9
$DIMLFAC
 40
1.0
  9
$DIMTOFL
 70
     0
  9
$DIMTVP
 40
0.0
  9
$DIMTIX
 70
     0
  9
$DIMSOXD
 70
     0
  9
$DIMSAH
 70
     0
  9
$DIMBLK1
  1

  9
$DIMBLK2
  1

  9
$DIMSTYLE
  2
Standard
  9
$DIMCLRD
 70
     0
  9
$DIMCLRE
 70
     0
  9
$DIMCLRT
 70
     0
  9
$DIMTFAC
 40
1.0
  9
$DIMGAP
 40
0.09
  9
$DIMJUST
 70
     0
  9
$DIMSD1
 70
     0
  9
$DIMSD2
 70
     0
  9
$DIMTOLJ
 70
     1
  9
$DIMTZIN
 70
     0
  9
$DIMALTZ
 70
     0
  9
$DIMALTTZ
 70
     0
  9
$DIMUPT
 70
     0
  9
$DIMDEC
 70
     4
  9
$DIMTDEC
 70
     4
  9
$DIMALTU
 70
     2
  9
$DIMALTTD
 70
     2
  9
$DIMTXSTY
  7
Standard
  9
$DIMAUNIT
 70
     0
  9
$DIMADEC
 70
     0
  9
$DIMALTRND
 40
0.0
  9
$DIMAZIN
 70
     0
  9
$DIMDSEP
 70
    46
  9
$DIMATFIT
 70
     3
  9
$DIMFRAC
 70
     0
  9
$DIMLDRBLK
  1

  9
$DIMLUNIT
 70
     2
  9
$DIMLWD
 70
    -2
  9
$DIMLWE
 70
    -2
  9
$DIMTMOVE
 70
     0
  9
$LUNITS
 70
     2
  9
$LUPREC
 70
     4
  9
$SKETCHINC
 40
0.1
  9
$FILLETRAD
 40
0.5
  9
$AUNITS
 70
     0
  9
$AUPREC
 70
     0
  9
$MENU
  1
.
  9
$ELEVATION
 40
0.0
  9
$PELEVATION
 40
0.0
  9
$THICKNESS
 40
0.0
  9
$LIMCHECK
 70
     0
  9
$CHAMFERA
 40
0.5
  9
$CHAMFERB
 40
0.5
  9
$CHAMFERC
 40
1.0
  9
$CHAMFERD
 40
0.0
  9
$SKPOLY
 70
     0
  9
$TDCREATE
 40
2455075.770963172
  9
$TDUCREATE
 40
2455075.687629838
  9
$TDUPDATE
 40
2455075.770963183
  9
$TDUUPDATE
 40
2455075.68762985
  9
$TDINDWG
 40
0.0000000116
  9
$TDUSRTIMER
 40
0.0000000116
  9
$USRTIMER
 70
     1
  9
$ANGBASE
 50
0.0
  9
$ANGDIR
 70
     0
  9
$PDMODE
 70
     0
  9
$PDSIZE
 40
0.0
  9
$PLINEWID
 40
0.0
  9
$SPLFRAME
 70
     0
  9
$SPLINETYPE
 70
     6
  9
$SPLINESEGS
 70
     8
  9
$HANDSEED
  5
14B
  9
$SURFTAB1
 70
     6
  9
$SURFTAB2
 70
     6
  9
$SURFTYPE
 70
     6
  9
$SURFU
 70
     6
  9
$SURFV
 70
     6
  9
$UCSBASE
  2

  9
$UCSNAME
  2

  9
$UCSORG
 10
0.0
 20
0.0
 30
0.0
  9
$UCSXDIR
 10
1.0
 20
0.0
 30
0.0
  9
$UCSYDIR
 10
0.0
 20
1.0
 30
0.0
  9
$UCSORTHOREF
  2

  9
$UCSORTHOVIEW
 70
     0
  9
$UCSORGTOP
 10
0.0
 20
0.0
 30
0.0
  9
$UCSORGBOTTOM
 10
0.0
 20
0.0
 30
0.0
  9
$UCSORGLEFT
 10
0.0
 20
0.0
 30
0.0
  9
$UCSORGRIGHT
 10
0.0
 20
0.0
 30
0.0
  9
$UCSORGFRONT
 10
0.0
 20
0.0
 30
0.0
  9
$UCSORGBACK
 10
0.0
 20
0.0
 30
0.0
  9
$PUCSBASE
  2

  9
$PUCSNAME
  2

  9
$PUCSORG
 10
0.0
 20
0.0
 30
0.0
  9
$PUCSXDIR
 10
1.0
 20
0.0
 30
0.0
  9
$PUCSYDIR
 10
0.0
 20
1.0
 30
0.0
  9
$PUCSORTHOREF
  2

  9
$PUCSORTHOVIEW
 70
     0
  9
$PUCSORGTOP
 10
0.0
 20
0.0
 30
0.0
  9
$PUCSORGBOTTOM
 10
0.0
 20
0.0
 30
0.0
  9
$PUCSORGLEFT
 10
0.0
 20
0.0
 30
0.0
  9
$PUCSORGRIGHT
 10
0.0
 20
0.0
 30
0.0
  9
$PUCSORGFRONT
 10
0.0
 20
0.0
 30
0.0
  9
$PUCSORGBACK
 10
0.0
 20
0.0
 30
0.0
  9
$USERI1
 70
     0
  9
$USERI2
 70
     0
  9
$USERI3
 70
     0
  9
$USERI4
 70
     0
  9
$USERI5
 70
     0
  9
$USERR1
 40
0.0
  9
$USERR2
 40
0.0
  9
$USERR3
 40
0.0
  9
$USERR4
 40
0.0
  9
$USERR5
 40
0.0
  9
$WORLDVIEW
 70
     1
  9
$SHADEDGE
 70
     3
  9
$SHADEDIF
 70
    70
  9
$TILEMODE
 70
     0
  9
$MAXACTVP
 70
    64
  9
$PINSBASE
 10
0.0
 20
0.0
 30
0.0
  9
$PLIMCHECK
 70
     0
  9
$PEXTMIN
 10
-0.5
 20
-0.5
 30
-0.5
  9
$PEXTMAX
 10
5.0
 20
5.0
 30
5.0
  9
$PLIMMIN
 10
0.0
 20
0.0
  9
$PLIMMAX
 10
9.6
 20
8.04
  9
$UNITMODE
 70
     0
  9
$VISRETAIN
 70
     1
  9
$PLINEGEN
 70
     0
  9
$PSLTSCALE
 70
     1
  9
$TREEDEPTH
 70
  3020
  9
$CMLSTYLE
  2
Standard
  9
$CMLJUST
 70
     0
  9
$CMLSCALE
 40
1.0
  9
$PROXYGRAPHICS
 70
     1
  9
$MEASUREMENT
 70
     1
  9
$CELWEIGHT
370
    -1
  9
$ENDCAPS
280
     0
  9
$JOINSTYLE
280
     0
  9
$LWDISPLAY
290
     0
  9
$INSUNITS
 70
     4
  9
$HYPERLINKBASE
  1

  9
$STYLESHEET
  1

  9
$XEDIT
290
     1
  9
$CEPSNTYPE
380
     0
  9
$PSTYLEMODE
290
     1
  9
$FINGERPRINTGUID
  2
{49A947EE-2ABA-07D7-3228-0D704DA37E09}
  9
$VERSIONGUID
  2
{FAEB1C32-E019-11D5-929B-00C0DF256EC4}
  9
$EXTNAMES
290
     1
  9
$PSVPSCALE
 40
0.0
  9
$OLESTARTUP
290
     0
  0
ENDSEC
  0
SECTION
  2
CLASSES
  0
CLASS
  1
ACDBDICTIONARYWDFLT
  2
AcDbDictionaryWithDefault
  3
ObjectDBX Classes
 90
        0
280
     0
281
     0
  0
CLASS
  1
ACDBPLACEHOLDER
  2
AcDbPlaceHolder
  3
ObjectDBX Classes
 90
        0
280
     0
281
     0
  0
CLASS
  1
LAYOUT
  2
AcDbLayout
  3
ObjectDBX Classes
 90
        0
280
     0
281
     0
  0
ENDSEC
  0
SECTION
  2
TABLES
  0
TABLE
  2
VPORT
  5
8
330
0
100
AcDbSymbolTable
 70
    17
  0
VPORT
  5
29
330
8
100
AcDbSymbolTableRecord
100
AcDbViewportTableRecord
  2
DUMMY
 70
     0
 10
0.0
 20
0.0
 11
1.0
 21
1.0
 12
10.429907
 22
4.5
 13
0.0
 23
0.0
 14
0.5
 24
0.5
 15
0.5
 25
0.5
 16
0.0
 26
0.0
 36
1.0
 17
0.0
 27
0.0
 37
0.0
 40
9.0
 41
1.972973
 42
50.0
 43
0.0
 44
0.0
 50
0.0
 51
0.0
 71
     0
 72
   100
 73
     1
 74
     3
 75
     0
 76
     0
 77
     0
 78
     0
281
     0
 65
     1
110
0.0
120
0.0
130
0.0
111
1.0
121
0.0
131
0.0
112
0.0
122
1.0
132
0.0
 79
     0
146
0.0
  0
VPORT
  5
13B
330
8
100
AcDbSymbolTableRecord
100
AcDbViewportTableRecord
  2
*ACTIVE
 70
     0
 10
0.0
 20
0.0
 11
1.0
 21
1.0
 12
0.0
 22
0.0
 13
0.0
 23
0.0
 14
0.5
 24
0.5
 15
0.5
 25
0.5
 16
0.7188730927569434
 26
-0.5850486126764432
 36
0.3754192287502549
 17
0.0
 27
0.0
 37
0.0
 40
1678.442937
 41
0.010579
 42
50.0
 43
828.582589
 44
-828.582589
 50
0.0
 51
0.0
 71
     0
 72
   100
 73
     1
 74
     3
 75
     0
 76
     0
 77
     0
 78
     0
281
     0
 65
     1
110
0.0
120
0.0
130
0.0
111
1.0
121
0.0
131
0.0
112
0.0
122
1.0
132
0.0
 79
     0
146
0.0
  0
VPORT
  5
13C
330
8
100
AcDbSymbolTableRecord
100
AcDbViewportTableRecord
  2
L1
 70
     0
 10
0.0
 20
0.0
 11
1.0
 21
1.0
 12
0.0
 22
0.0
 13
0.0
 23
0.0
 14
0.5
 24
0.5
 15
0.5
 25
0.5
 16
0.7188730927569434
 26
-0.5850486126764432
 36
0.3754192287502549
 17
0.0
 27
0.0
 37
0.0
 40
1678.442937
 41
0.010579
 42
50.0
 43
828.582589
 44
-828.582589
 50
0.0
 51
0.0
 71
     0
 72
   100
 73
     1
 74
     3
 75
     0
 76
     0
 77
     0
 78
     0
281
     0
 65
     1
110
0.0
120
0.0
130
0.0
111
1.0
121
0.0
131
0.0
112
0.0
122
1.0
132
0.0
 79
     0
146
0.0
  0
VPORT
  5
13D
330
8
100
AcDbSymbolTableRecord
100
AcDbViewportTableRecord
  2
L2
 70
     0
 10
0.0
 20
0.0
 11
0.5
 21
1.0
 12
0.0
 22
0.0
 13
0.0
 23
0.0
 14
0.5
 24
0.5
 15
0.5
 25
0.5
 16
0.0
 26
-1.0
 36
0.0
 17
0.0
 27
0.0
 37
0.0
 40
1616.746515
 41
0.010983
 42
50.0
 43
837.089729
 44
-837.089729
 50
0.0
 51
0.0
 71
     0
 72
   100
 73
     1
 74
     3
 75
     0
 76
     0
 77
     0
 78
     0
281
     0
 65
     1
110
0.0
120
0.0
130
0.0
111
1.0
121
0.0
131
0.0
112
0.0
122
1.0
132
0.0
 79
     0
146
0.0
  0
VPORT
  5
13E
330
8
100
AcDbSymbolTableRecord
100
AcDbViewportTableRecord
  2
L2
 70
     0
 10
0.5
 20
0.0
 11
1.0
 21
1.0
 12
0.0
 22
0.0
 13
0.0
 23
0.0
 14
0.5
 24
0.5
 15
0.5
 25
0.5
 16
1.0
 26
0.0
 36
0.0
 17
0.0
 27
0.0
 37
0.0
 40
1616.746515
 41
0.010983
 42
50.0
 43
816.177137
 44
-816.177137
 50
0.0
 51
0.0
 71
     0
 72
   100
 73
     1
 74
     3
 75
     0
 76
     0
 77
     0
 78
     0
281
     0
 65
     1
110
0.0
120
0.0
130
0.0
111
1.0
121
0.0
131
0.0
112
0.0
122
1.0
132
0.0
 79
     0
146
0.0
  0
VPORT
  5
13F
330
8
100
AcDbSymbolTableRecord
100
AcDbViewportTableRecord
  2
L3
 70
     0
 10
0.0
 20
0.5
 11
1.0
 21
1.0
 12
0.0
 22
0.0
 13
0.0
 23
0.0
 14
0.5
 24
0.5
 15
0.5
 25
0.5
 16
0.0
 26
0.0
 36
1.0
 17
0.0
 27
0.0
 37
0.0
 40
225.191429
 41
0.078852
 42
50.0
 43
808.373257
 44
-808.373257
 50
0.0
 51
0.0
 71
     0
 72
   100
 73
     1
 74
     3
 75
     0
 76
     0
 77
     0
 78
     0
281
     0
 65
     1
110
0.0
120
0.0
130
0.0
111
1.0
121
0.0
131
0.0
112
0.0
122
1.0
132
0.0
 79
     0
146
0.0
  0
VPORT
  5
140
330
8
100
AcDbSymbolTableRecord
100
AcDbViewportTableRecord
  2
L3
 70
     0
 10
0.0
 20
0.0
 11
1.0
 21
0.5
 12
0.0
 22
0.0
 13
0.0
 23
0.0
 14
0.5
 24
0.5
 15
0.5
 25
0.5
 16
0.0
 26
-1.0
 36
0.0
 17
0.0
 27
0.0
 37
0.0
 40
1616.746515
 41
0.010983
 42
50.0
 43
837.089729
 44
-837.089729
 50
0.0
 51
0.0
 71
     0
 72
   100
 73
     1
 74
     3
 75
     0
 76
     0
 77
     0
 78
     0
281
     0
 65
     1
110
0.0
120
0.0
130
0.0
111
1.0
121
0.0
131
0.0
112
0.0
122
1.0
132
0.0
 79
     0
146
0.0
  0
VPORT
  5
141
330
8
100
AcDbSymbolTableRecord
100
AcDbViewportTableRecord
  2
L4
 70
     0
 10
0.0
 20
0.5
 11
0.5
 21
1.0
 12
0.0
 22
0.0
 13
0.0
 23
0.0
 14
0.5
 24
0.5
 15
0.5
 25
0.5
 16
0.0
 26
0.0
 36
1.0
 17
0.0
 27
0.0
 37
0.0
 40
225.191429
 41
0.078852
 42
50.0
 43
808.373257
 44
-808.373257
 50
0.0
 51
0.0
 71
     0
 72
   100
 73
     1
 74
     3
 75
     0
 76
     0
 77
     0
 78
     0
281
     0
 65
     1
110
0.0
120
0.0
130
0.0
111
1.0
121
0.0
131
0.0
112
0.0
122
1.0
132
0.0
 79
     0
146
0.0
  0
VPORT
  5
142
330
8
100
AcDbSymbolTableRecord
100
AcDbViewportTableRecord
  2
L4
 70
     0
 10
0.0
 20
0.0
 11
0.5
 21
0.5
 12
0.0
 22
0.0
 13
0.0
 23
0.0
 14
0.5
 24
0.5
 15
0.5
 25
0.5
 16
0.0
 26
-1.0
 36
0.0
 17
0.0
 27
0.0
 37
0.0
 40
1616.746515
 41
0.010983
 42
50.0
 43
837.089729
 44
-837.089729
 50
0.0
 51
0.0
 71
     0
 72
   100
 73
     1
 74
     3
 75
     0
 76
     0
 77
     0
 78
     0
281
     0
 65
     1
110
0.0
120
0.0
130
0.0
111
1.0
121
0.0
131
0.0
112
0.0
122
1.0
132
0.0
 79
     0
146
0.0
  0
VPORT
  5
143
330
8
100
AcDbSymbolTableRecord
100
AcDbViewportTableRecord
  2
L4
 70
     0
 10
0.5
 20
0.0
 11
1.0
 21
0.5
 12
0.0
 22
0.0
 13
0.0
 23
0.0
 14
0.5
 24
0.5
 15
0.5
 25
0.5
 16
1.0
 26
0.0
 36
0.0
 17
0.0
 27
0.0
 37
0.0
 40
1616.746515
 41
0.010983
 42
50.0
 43
816.177137
 44
-816.177137
 50
0.0
 51
0.0
 71
     0
 72
   100
 73
     1
 74
     3
 75
     0
 76
     0
 77
     0
 78
     0
281
     0
 65
     1
110
0.0
120
0.0
130
0.0
111
1.0
121
0.0
131
0.0
112
0.0
122
1.0
132
0.0
 79
     0
146
0.0
  0
VPORT
  5
144
330
8
100
AcDbSymbolTableRecord
100
AcDbViewportTableRecord
  2
L4
 70
     0
 10
0.5
 20
0.5
 11
1.0
 21
1.0
 12
0.0
 22
0.0
 13
0.0
 23
0.0
 14
0.5
 24
0.5
 15
0.5
 25
0.5
 16
0.5773502691896258
 26
-0.5773502691896258
 36
0.5773502691896258
 17
0.0
 27
0.0
 37
0.0
 40
1589.487962
 41
0.011171
 42
50.0
 43
828.286382
 44
-828.286382
 50
0.0
 51
0.0
 71
     0
 72
   100
 73
     1
 74
     3
 75
     0
 76
     0
 77
     0
 78
     0
281
     0
 65
     1
110
0.0
120
0.0
130
0.0
111
1.0
121
0.0
131
0.0
112
0.0
122
1.0
132
0.0
 79
     0
146
0.0
  0
VPORT
  5
145
330
8
100
AcDbSymbolTableRecord
100
AcDbViewportTableRecord
  2
L6
 70
     0
 10
0.0
 20
0.5
 11
0.333333
 21
1.0
 12
0.0
 22
0.0
 13
0.0
 23
0.0
 14
0.5
 24
0.5
 15
0.5
 25
0.5
 16
0.7188730927569434
 26
-0.5850486126764432
 36
0.3754192287502549
 17
0.0
 27
0.0
 37
0.0
 40
1678.442937
 41
0.010579
 42
50.0
 43
828.582589
 44
-828.582589
 50
0.0
 51
0.0
 71
     0
 72
   100
 73
     1
 74
     3
 75
     0
 76
     0
 77
     0
 78
     0
281
     0
 65
     1
110
0.0
120
0.0
130
0.0
111
1.0
121
0.0
131
0.0
112
0.0
122
1.0
132
0.0
 79
     0
146
0.0
  0
VPORT
  5
146
330
8
100
AcDbSymbolTableRecord
100
AcDbViewportTableRecord
  2
L6
 70
     0
 10
0.0
 20
0.0
 11
0.333333
 21
0.5
 12
0.0
 22
0.0
 13
0.0
 23
0.0
 14
0.5
 24
0.5
 15
0.5
 25
0.5
 16
-1.0
 26
0.0
 36
0.0
 17
0.0
 27
0.0
 37
0.0
 40
1616.746515
 41
0.010983
 42
50.0
 43
816.177137
 44
-816.177137
 50
0.0
 51
0.0
 71
     0
 72
   100
 73
     1
 74
     3
 75
     0
 76
     0
 77
     0
 78
     0
281
     0
 65
     1
110
0.0
120
0.0
130
0.0
111
1.0
121
0.0
131
0.0
112
0.0
122
1.0
132
0.0
 79
     0
146
0.0
  0
VPORT
  5
147
330
8
100
AcDbSymbolTableRecord
100
AcDbViewportTableRecord
  2
L6
 70
     0
 10
0.333333
 20
0.5
 11
0.666667
 21
1.0
 12
0.0
 22
0.0
 13
0.0
 23
0.0
 14
0.5
 24
0.5
 15
0.5
 25
0.5
 16
0.0
 26
0.0
 36
1.0
 17
0.0
 27
0.0
 37
0.0
 40
225.191429
 41
0.078852
 42
50.0
 43
808.373257
 44
-808.373257
 50
0.0
 51
0.0
 71
     0
 72
   100
 73
     1
 74
     3
 75
     0
 76
     0
 77
     0
 78
     0
281
     0
 65
     1
110
0.0
120
0.0
130
0.0
111
1.0
121
0.0
131
0.0
112
0.0
122
1.0
132
0.0
 79
     0
146
0.0
  0
VPORT
  5
148
330
8
100
AcDbSymbolTableRecord
100
AcDbViewportTableRecord
  2
L6
 70
     0
 10
0.333333
 20
0.0
 11
0.666667
 21
0.5
 12
0.0
 22
0.0
 13
0.0
 23
0.0
 14
0.5
 24
0.5
 15
0.5
 25
0.5
 16
0.0
 26
-1.0
 36
0.0
 17
0.0
 27
0.0
 37
0.0
 40
1616.746515
 41
0.010983
 42
50.0
 43
837.089729
 44
-837.089729
 50
0.0
 51
0.0
 71
     0
 72
   100
 73
     1
 74
     3
 75
     0
 76
     0
 77
     0
 78
     0
281
     0
 65
     1
110
0.0
120
0.0
130
0.0
111
1.0
121
0.0
131
0.0
112
0.0
122
1.0
132
0.0
 79
     0
146
0.0
  0
VPORT
  5
149
330
8
100
AcDbSymbolTableRecord
100
AcDbViewportTableRecord
  2
L6
 70
     0
 10
0.666667
 20
0.5
 11
1.0
 21
1.0
 12
0.0
 22
0.0
 13
0.0
 23
0.0
 14
0.5
 24
0.5
 15
0.5
 25
0.5
 16
0.5773502691896258
 26
-0.5773502691896258
 36
0.5773502691896258
 17
0.0
 27
0.0
 37
0.0
 40
1589.487962
 41
0.011171
 42
50.0
 43
828.286382
 44
-828.286382
 50
0.0
 51
0.0
 71
     0
 72
   100
 73
     1
 74
     3
 75
     0
 76
     0
 77
     0
 78
     0
281
     0
 65
     1
110
0.0
120
0.0
130
0.0
111
1.0
121
0.0
131
0.0
112
0.0
122
1.0
132
0.0
 79
     0
146
0.0
  0
VPORT
  5
14A
330
8
100
AcDbSymbolTableRecord
100
AcDbViewportTableRecord
  2
L6
 70
     0
 10
0.666667
 20
0.0
 11
1.0
 21
0.5
 12
0.0
 22
0.0
 13
0.0
 23
0.0
 14
0.5
 24
0.5
 15
0.5
 25
0.5
 16
1.0
 26
0.0
 36
0.0
 17
0.0
 27
0.0
 37
0.0
 40
1616.746515
 41
0.010983
 42
50.0
 43
816.177137
 44
-816.177137
 50
0.0
 51
0.0
 71
     0
 72
   100
 73
     1
 74
     3
 75
     0
 76
     0
 77
     0
 78
     0
281
     0
 65
     1
110
0.0
120
0.0
130
0.0
111
1.0
121
0.0
131
0.0
112
0.0
122
1.0
132
0.0
 79
     0
146
0.0
  0
ENDTAB
  0
TABLE
  2
LTYPE
  5
5
330
0
100
AcDbSymbolTable
 70
     7
  0
LTYPE
  5
14
330
5
100
AcDbSymbolTableRecord
100
AcDbLinetypeTableRecord
  2
ByBlock
 70
     0
  3

 72
    65
 73
     0
 40
0.0
  0
LTYPE
  5
15
330
5
100
AcDbSymbolTableRecord
100
AcDbLinetypeTableRecord
  2
ByLayer
 70
     0
  3

 72
    65
 73
     0
 40
0.0
  0
LTYPE
  5
16
330
5
100
AcDbSymbolTableRecord
100
AcDbLinetypeTableRecord
  2
Continuous
 70
     0
  3
Solid line
 72
    65
 73
     0
 40
0.0
  0
LTYPE
  5
2B
330
5
100
AcDbSymbolTableRecord
100
AcDbLinetypeTableRecord
  2
DASHED
 70
     0
  3
__ __ __ __ __ __ __ __ __
 72
    65
 73
     2
 40
25.72
 49
12.86
 74
     4
 75
     0
340
0
 46
0.0
 50
0.0
 44
0.0
 45
0.0
 49
-12.86
 74
     4
 75
     0
340
0
 46
0.0
 50
0.0
 44
0.0
 45
0.0
  0
LTYPE
  5
2C
330
5
100
AcDbSymbolTableRecord
100
AcDbLinetypeTableRecord
  2
HIDDEN
 70
     0
  3
_ _ _ _ _ _ _ _ _ _ _ _ _ _ _
 72
    65
 73
     2
 40
0.5
 49
0.25
 74
     4
 75
     0
340
0
 46
0.0
 50
0.0
 44
0.0
 45
0.0
 49
-0.25
 74
     4
 75
     0
340
0
 46
0.0
 50
0.0
 44
0.0
 45
0.0
  0
LTYPE
  5
2D
330
5
100
AcDbSymbolTableRecord
100
AcDbLinetypeTableRecord
  2
PHANTOM
 70
     0
  3
____ _ _ ____ _ _ _____ _ _ ____
 72
    65
 73
     6
 40
50.5
 49
18.0
 74
     4
 75
     0
340
0
 46
0.0
 50
0.0
 44
0.0
 45
0.0
 49
-6.5
 74
     4
 75
     0
340
0
 46
0.0
 50
0.0
 44
0.0
 45
0.0
 49
6.5
 74
     4
 75
     0
340
0
 46
0.0
 50
0.0
 44
0.0
 45
0.0
 49
-6.5
 74
     4
 75
     0
340
0
 46
0.0
 50
0.0
 44
0.0
 45
0.0
 49
6.5
 74
     4
 75
     0
340
0
 46
0.0
 50
0.0
 44
0.0
 45
0.0
 49
-6.5
 74
     4
 75
     0
340
0
 46
0.0
 50
0.0
 44
0.0
 45
0.0
  0
LTYPE
  5
2E
330
5
100
AcDbSymbolTableRecord
100
AcDbLinetypeTableRecord
  2
CENTER
 70
     0
  3
____ _ ____ _ ____ _ ____
 72
    65
 73
     4
 40
47.4
 49
22.0
 74
     4
 75
     0
340
0
 46
0.0
 50
0.0
 44
0.0
 45
0.0
 49
-8.5
 74
     4
 75
     0
340
0
 46
0.0
 50
0.0
 44
0.0
 45
0.0
 49
8.5
 74
     4
 75
     0
340
0
 46
0.0
 50
0.0
 44
0.0
 45
0.0
 49
-8.5
 74
     4
 75
     0
340
0
 46
0.0
 50
0.0
 44
0.0
 45
0.0
  0
LTYPE
  5
2F
330
5
100
AcDbSymbolTableRecord
100
AcDbLinetypeTableRecord
  2
DOT
 70
     0
  3
.........................
 72
    65
 73
     2
 40
10.0
 49
0.0
 74
     4
 75
     0
340
0
 46
0.0
 50
0.0
 44
0.0
 45
0.0
 49
-10.0
 74
     4
 75
     0
340
0
 46
0.0
 50
0.0
 44
0.0
 45
0.0
  0
LTYPE
  5
30
330
5
100
AcDbSymbolTableRecord
100
AcDbLinetypeTableRecord
  2
DASHDOT
 70
     0
  3
_._._._._._._._._._._._._._._._.
 72
    65
 73
     4
 40
70.0
 49
31.0
 74
     4
 75
     0
340
0
 46
0.0
 50
0.0
 44
0.0
 45
0.0
 49
-13.0
 74
     4
 75
     0
340
0
 46
0.0
 50
0.0
 44
0.0
 45
0.0
 49
13.0
 74
     4
 75
     0
340
0
 46
0.0
 50
0.0
 44
0.0
 45
0.0
 49
-13.0
 74
     4
 75
     0
340
0
 46
0.0
 50
0.0
 44
0.0
 45
0.0
  0
ENDTAB
  0
TABLE
  2
LAYER
  5
2
330
0
100
AcDbSymbolTable
 70
     2
  0
LAYER
  5
10
330
2
100
AcDbSymbolTableRecord
100
AcDbLayerTableRecord
  2
0
 70
     0
 62
     7
  6
Continuous
370
    -3
390
F
  0
LAYER
  5
32
330
2
100
AcDbSymbolTableRecord
100
AcDbLayerTableRecord
  2
1
 70
     0
 62
     7
  6
Continuous
370
    -3
390
F
  0
ENDTAB
  0
TABLE
  2
STYLE
  5
3
330
0
100
AcDbSymbolTable
 70
     1
  0
STYLE
  5
11
330
3
100
AcDbSymbolTableRecord
100
AcDbTextStyleTableRecord
  2
Standard
 70
     0
 40
0.0
 41
1.0
 50
0.0
 71
     0
 42
0.2
  3
txt
  4

  0
ENDTAB
  0
TABLE
  2
VIEW
  5
6
330
0
100
AcDbSymbolTable
 70
     8
  0
VIEW
  5
133
330
6
100
AcDbSymbolTableRecord
100
AcDbViewTableRecord
  2
TOP
 70
     0
 40
225.191429
 10
0.0
 20
0.0
 41
434.75
 11
0.0
 21
0.0
 31
1.0
 12
0.0
 22
0.0
 32
0.0
 42
50.0
 43
808.373257
 44
-808.373257
 50
0.0
 71
     0
281
     0
 72
     0
  0
VIEW
  5
134
330
6
100
AcDbSymbolTableRecord
100
AcDbViewTableRecord
  2
FRONT
 70
     0
 40
1616.746515
 10
0.0
 20
0.0
 41
434.75
 11
0.0
 21
-1.0
 31
0.0
 12
0.0
 22
0.0
 32
0.0
 42
50.0
 43
837.089729
 44
-837.089729
 50
0.0
 71
     0
281
     0
 72
     0
  0
VIEW
  5
135
330
6
100
AcDbSymbolTableRecord
100
AcDbViewTableRecord
  2
RIGHT
 70
     0
 40
1616.746515
 10
0.0
 20
0.0
 41
225.191429
 11
1.0
 21
0.0
 31
0.0
 12
0.0
 22
0.0
 32
0.0
 42
50.0
 43
816.177137
 44
-816.177137
 50
0.0
 71
     0
281
     0
 72
     0
  0
VIEW
  5
136
330
6
100
AcDbSymbolTableRecord
100
AcDbViewTableRecord
  2
BACK
 70
     0
 40
1616.746515
 10
0.0
 20
0.0
 41
434.75
 11
0.0
 21
1.0
 31
0.0
 12
0.0
 22
0.0
 32
0.0
 42
50.0
 43
837.089729
 44
-837.089729
 50
0.0
 71
     0
281
     0
 72
     0
  0
VIEW
  5
137
330
6
100
AcDbSymbolTableRecord
100
AcDbViewTableRecord
  2
BOTTOM
 70
     0
 40
225.191429
 10
0.0
 20
0.0
 41
434.75
 11
0.0
 21
0.0
 31
-1.0
 12
0.0
 22
0.0
 32
0.0
 42
50.0
 43
808.373257
 44
-808.373257
 50
180.0
 71
     0
281
     0
 72
     0
  0
VIEW
  5
138
330
6
100
AcDbSymbolTableRecord
100
AcDbViewTableRecord
  2
LEFT
 70
     0
 40
1616.746515
 10
0.0
 20
0.0
 41
225.191429
 11
-1.0
 21
0.0
 31
0.0
 12
0.0
 22
0.0
 32
0.0
 42
50.0
 43
816.177137
 44
-816.177137
 50
0.0
 71
     0
281
     0
 72
     0
  0
VIEW
  5
139
330
6
100
AcDbSymbolTableRecord
100
AcDbViewTableRecord
  2
TFR-ISO
 70
     0
 40
1589.487962
 10
0.0
 20
0.0
 41
466.649059
 11
0.5773502691896258
 21
-0.5773502691896258
 31
0.5773502691896258
 12
0.0
 22
0.0
 32
0.0
 42
50.0
 43
828.286382
 44
-828.286382
 50
0.0
 71
     0
281
     0
 72
     0
  0
VIEW
  5
13A
330
6
100
AcDbSymbolTableRecord
100
AcDbViewTableRecord
  2
TFR-TRI
 70
     0
 40
1678.442937
 10
0.0
 20
0.0
 41
449.081994
 11
0.7188730927569434
 21
-0.5850486126764432
 31
0.3754192287502549
 12
0.0
 22
0.0
 32
0.0
 42
50.0
 43
828.582589
 44
-828.582589
 50
0.0
 71
     0
281
     0
 72
     0
  0
ENDTAB
  0
TABLE
  2
UCS
  5
7
330
0
100
AcDbSymbolTable
 70
     0
  0
ENDTAB
  0
TABLE
  2
APPID
  5
9
330
0
100
AcDbSymbolTable
 70
     1
  0
APPID
  5
12
330
9
100
AcDbSymbolTableRecord
100
AcDbRegAppTableRecord
  2
ACAD
 70
     0
  0
ENDTAB
  0
TABLE
  2
DIMSTYLE
  5
A
330
0
100
AcDbSymbolTable
 70
     1
100
AcDbDimStyleTable
  0
DIMSTYLE
105
27
330
A
100
AcDbSymbolTableRecord
100
AcDbDimStyleTableRecord
  2
Standard
 70
     0
340
11
  0
ENDTAB
  0
TABLE
  2
BLOCK_RECORD
  5
1
330
0
100
AcDbSymbolTable
 70
     1
  0
BLOCK_RECORD
  5
1F
330
1
100
AcDbSymbolTableRecord
100
AcDbBlockTableRecord
  2
*Model_Space
340
22
  0
BLOCK_RECORD
  5
1B
330
1
100
AcDbSymbolTableRecord
100
AcDbBlockTableRecord
  2
*Paper_Space
340
1E
  0
BLOCK_RECORD
  5
23
330
1
100
AcDbSymbolTableRecord
100
AcDbBlockTableRecord
  2
*Paper_Space0
340
26
  0
ENDTAB
  0
ENDSEC
  0
SECTION
  2
BLOCKS
  0
BLOCK
  5
20
330
1F
100
AcDbEntity
  8
0
100
AcDbBlockBegin
  2
*Model_Space
 70
     0
 71
     0
 10
0.0
 20
0.0
 30
0.0
  3
*Model_Space
  1

  0
ENDBLK
  5
21
330
1F
100
AcDbEntity
  8
0
100
AcDbBlockEnd
  0
BLOCK
  5
1C
330
1B
100
AcDbEntity
 67
     1
  8
0
100
AcDbBlockBegin
  2
*Paper_Space
 70
     0
 71
     0
 10
0.0
 20
0.0
 30
0.0
  3
*Paper_Space
  1

  0
ENDBLK
  5
1D
330
1B
100
AcDbEntity
 67
     1
  8
0
100
AcDbBlockEnd
  0
BLOCK
  5
24
330
23
100
AcDbEntity
  8
0
100
AcDbBlockBegin
  2
*Paper_Space0
 70
     0
 71
     0
 10
0.0
 20
0.0
 30
0.0
  3
*Paper_Space0
  1

  0
ENDBLK
  5
25
330
23
100
AcDbEntity
  8
0
100
AcDbBlockEnd
  0
ENDSEC
  0
SECTION
  2
ENTITIES
  0
LINE
  5
31
330
1F
100
AcDbEntity
  8
1
 62
     7
100
AcDbLine
 10
-19.611128
 20
35.4
 30
0.0
 11
-19.611128
 21
35.4
 31
-0.27
  0
LINE
  5
33
330
1F
100
AcDbEntity
  8
1
 62
     7
100
AcDbLine
 10
-29.0
 20
400.0
 30
-5.0
 11
-6.0
 21
400.0
 31
-5.0
  0
ARC
  5
34
330
1F
100
AcDbEntity
  8
1
 62
     7
100
AcDbCircle
 10
-15.0
 20
36.0
 30
-1.4
 40
3.52
100
AcDbArc
 50
-9.814248
 51
9.814248
  0
LINE
  5
35
330
1F
100
AcDbEntity
  8
1
 62
     7
100
AcDbLine
 10
7.5
 20
452.0
 30
-9.0
 11
7.5
 21
452.0
 31
-5.0
  0
CIRCLE
  5
36
330
1F
100
AcDbEntity
  8
1
 62
     7
100
AcDbCircle
 10
-80.0
 20
-13.996382
 30
113.187656
 40
5.0
210
-0.9063077870366501
220
0.0
230
-0.4226182617406995
  0
LINE
  5
37
330
1F
100
AcDbEntity
  8
1
 62
     7
100
AcDbLine
 10
7.5
 20
340.0
 30
-27.0
 11
7.5
 21
340.0
 31
-32.0
  0
LINE
  5
38
330
1F
100
AcDbEntity
  8
1
 62
     7
100
AcDbLine
 10
7.5
 20
70.0
 30
-163.39582
 11
7.5
 21
70.0
 31
-7.0
  0
ARC
  5
39
330
1F
100
AcDbEntity
  8
1
 62
     7
100
AcDbCircle
 10
15.0
 20
36.0
 30
1.4
 40
3.52
210
0.0
220
1.848071884918472E-16
230
-1.0
100
AcDbArc
 50
-9.814248
 51
9.814248
  0
LINE
  5
3A
330
1F
100
AcDbEntity
  8
1
 62
     7
100
AcDbLine
 10
7.5
 20
70.0
 30
-7.0
 11
2.5
 21
70.0
 31
-7.0
  0
SPLINE
  5
3B
330
1F
100
AcDbEntity
  8
1
 62
     7
100
AcDbSpline
210
1.725340252531058E-12
220
1.0
230
1.732065401271718E-12
 70
     8
 71
     3
 72
     8
 73
     4
 74
     0
 42
0.000000001
 43
0.0000000001
 40
0.0
 40
0.0
 40
0.0
 40
0.0
 40
1.0
 40
1.0
 40
1.0
 40
1.0
 10
-19.61112784468182
 20
35.40000000000001
 30
-0.2699999999999998
 10
-19.23075776205049
 20
35.4
 30
-0.6471903396355339
 10
-18.85003342512377
 20
35.4
 30
-1.024037006757222
 10
-18.46848670171879
 20
35.39999999999999
 30
-1.399999999999987
  0
ARC
  5
3C
330
1F
100
AcDbEntity
  8
1
 62
     7
100
AcDbCircle
 10
-24.0
 20
410.0
 30
-10.0
 40
7.0
100
AcDbArc
 50
0.0
 51
180.0
  0
LINE
  5
3D
330
1F
100
AcDbEntity
  8
1
 62
     7
100
AcDbLine
 10
-9.0
 20
0.0
 30
-10.0
 11
-35.0
 21
0.0
 31
-10.0
  0
LINE
  5
3E
330
1F
100
AcDbEntity
  8
1
 62
     7
100
AcDbLine
 10
7.5
 20
87.0
 30
-138.39582
 11
2.5
 21
87.0
 31
-138.39582
  0
LINE
  5
3F
330
1F
100
AcDbEntity
  8
1
 62
     7
100
AcDbLine
 10
3.75
 20
340.0
 30
-163.39582
 11
8.75
 21
340.0
 31
-163.39582
  0
LINE
  5
40
330
1F
100
AcDbEntity
  8
1
 62
     7
100
AcDbLine
 10
7.5
 20
78.0
 30
-122.39582
 11
7.5
 21
78.0
 31
-138.39582
  0
SPLINE
  5
41
330
1F
100
AcDbEntity
  8
1
 62
     7
100
AcDbSpline
210
0.0
220
1.0
230
0.0
 70
     8
 71
     3
 72
     8
 73
     4
 74
     0
 42
0.000000001
 43
0.0000000001
 40
0.0
 40
0.0
 40
0.0
 40
0.0
 40
1.0
 40
1.0
 40
1.0
 40
1.0
 10
-19.61112784468182
 20
360.4
 30
-0.2699999999999998
 10
-19.23075776205049
 20
360.4
 30
-0.6471903396355339
 10
-18.85003342512377
 20
360.4
 30
-1.024037006757222
 10
-18.46848670171879
 20
360.4
 30
-1.399999999999987
  0
LINE
  5
42
330
1F
100
AcDbEntity
  8
1
 62
     7
100
AcDbLine
 10
3.75
 20
323.0
 30
-138.39582
 11
3.75
 21
323.0
 31
-122.39582
  0
SPLINE
  5
43
330
1F
100
AcDbEntity
  8
1
 62
     7
100
AcDbSpline
210
0.0
220
1.0
230
0.0
 70
     8
 71
     3
 72
     8
 73
     4
 74
     0
 42
0.000000001
 43
0.0000000001
 40
0.0
 40
0.0
 40
0.0
 40
0.0
 40
1.0
 40
1.0
 40
1.0
 40
1.0
 10
-11.53151329828121
 20
361.6
 30
-1.399999999999988
 10
-11.14995055197586
 20
361.6
 30
-1.024021218343336
 10
-10.76923761393413
 20
361.6
 30
-0.6471857542750935
 10
-10.38887215531818
 20
361.6
 30
-0.2700000000000002
  0
CIRCLE
  5
44
330
1F
100
AcDbEntity
  8
1
 62
     7
100
AcDbCircle
 10
-320.0
 20
-13.996382
 30
113.187656
 40
5.0
210
-0.9063077870366501
220
0.0
230
-0.4226182617406995
  0
LINE
  5
45
330
1F
100
AcDbEntity
  8
1
 62
     7
100
AcDbLine
 10
-35.0
 20
400.0
 30
-10.0
 11
-45.0
 21
400.0
 31
0.0
  0
LINE
  5
46
330
1F
100
AcDbEntity
  8
1
 62
     7
100
AcDbLine
 10
-9.0
 20
400.0
 30
-45.0
 11
-9.0
 21
0.0
 31
-45.0
  0
CIRCLE
  5
47
330
1F
100
AcDbEntity
  8
1
 62
     7
100
AcDbCircle
 10
-15.0
 20
36.0
 30
-2.0
 40
3.0
  0
CIRCLE
  5
48
330
1F
100
AcDbEntity
  8
1
 62
     7
100
AcDbCircle
 10
80.0
 20
-13.996382
 30
-121.187656
 40
9.5
210
0.9063077870366499
220
0.0
230
0.4226182617406994
  0
LINE
  5
49
330
1F
100
AcDbEntity
  8
1
 62
     7
100
AcDbLine
 10
-29.0
 20
400.0
 30
0.0
 11
-29.0
 21
400.0
 31
-5.0
  0
LINE
  5
4A
330
1F
100
AcDbEntity
  8
1
 62
     7
100
AcDbLine
 10
8.75
 20
340.0
 30
-163.39582
 11
8.75
 21
340.0
 31
-7.0
  0
LINE
  5
4B
330
1F
100
AcDbEntity
  8
1
 62
     7
100
AcDbLine
 10
3.75
 20
332.0
 30
-122.39582
 11
8.75
 21
332.0
 31
-122.39582
  0
LINE
  5
4C
330
1F
100
AcDbEntity
  8
1
 62
     7
100
AcDbLine
 10
7.5
 20
95.0
 30
-7.0
 11
2.5
 21
95.0
 31
-7.0
  0
LINE
  5
4D
330
1F
100
AcDbEntity
  8
1
 62
     7
100
AcDbLine
 10
-29.0
 20
0.0
 30
-5.0
 11
-6.0
 21
0.0
 31
-5.0
  0
LINE
  5
4E
330
1F
100
AcDbEntity
  8
1
 62
     7
100
AcDbLine
 10
24.0
 20
400.0
 30
-5.0
 11
5.5
 21
400.0
 31
-5.0
  0
LINE
  5
4F
330
1F
100
AcDbEntity
  8
1
 62
     7
100
AcDbLine
 10
2.5
 20
0.0
 30
-24.0
 11
2.5
 21
400.0
 31
-24.0
  0
LINE
  5
50
330
1F
100
AcDbEntity
  8
1
 62
     7
100
AcDbLine
 10
3.75
 20
332.0
 30
-122.39582
 11
3.75
 21
332.0
 31
-138.39582
  0
ARC
  5
51
330
1F
100
AcDbEntity
  8
1
 62
     7
100
AcDbCircle
 10
-24.0
 20
410.0
 30
-14.0
 40
7.0
100
AcDbArc
 50
0.0
 51
180.0
  0
CIRCLE
  5
52
330
1F
100
AcDbEntity
  8
1
 62
     7
100
AcDbCircle
 10
-15.0
 20
361.0
 30
-5.0
 40
2.067
  0
LINE
  5
53
330
1F
100
AcDbEntity
  8
1
 62
     7
100
AcDbLine
 10
152.5
 20
95.0
 30
-32.0
 11
152.5
 21
95.0
 31
-27.0
  0
ARC
  5
54
330
1F
100
AcDbEntity
  8
1
 62
     7
100
AcDbCircle
 10
5.5
 20
-8.0
 30
0.0
 40
3.0
210
0.0
220
1.0
230
0.0
100
AcDbArc
 50
90.0
 51
180.0
  0
LINE
  5
55
330
1F
100
AcDbEntity
  8
1
 62
     7
100
AcDbLine
 10
22.5
 20
352.0
 30
-9.0
 11
22.5
 21
452.0
 31
-9.0
  0
LINE
  5
56
330
1F
100
AcDbEntity
  8
1
 62
     7
100
AcDbLine
 10
152.5
 20
315.0
 30
-27.0
 11
152.5
 21
340.0
 31
-27.0
  0
CIRCLE
  5
57
330
1F
100
AcDbEntity
  8
1
 62
     7
100
AcDbCircle
 10
15.0
 20
41.0
 30
-2.0
 40
3.0
  0
LINE
  5
58
330
1F
100
AcDbEntity
  8
1
 62
     7
100
AcDbLine
 10
22.5
 20
452.0
 30
-9.0
 11
7.5
 21
452.0
 31
-9.0
  0
LINE
  5
59
330
1F
100
AcDbEntity
  8
1
 62
     7
100
AcDbLine
 10
152.5
 20
315.0
 30
-27.0
 11
7.5
 21
315.0
 31
-27.0
  0
ARC
  5
5A
330
1F
100
AcDbEntity
  8
1
 62
     7
100
AcDbCircle
 10
-24.0
 20
-4.0
 30
0.0
 40
1.0
210
0.0
220
-1.0
230
0.0
100
AcDbArc
 50
180.0
 51
270.0
  0
LINE
  5
5B
330
1F
100
AcDbEntity
  8
1
 62
     7
100
AcDbLine
 10
2.5
 20
95.0
 30
-163.39582
 11
2.5
 21
70.0
 31
-163.39582
  0
LINE
  5
5C
330
1F
100
AcDbEntity
  8
1
 62
     7
100
AcDbLine
 10
-10.388872
 20
35.4
 30
0.0
 11
-10.388872
 21
35.4
 31
-0.27
  0
LINE
  5
5D
330
1F
100
AcDbEntity
  8
1
 62
     7
100
AcDbLine
 10
3.75
 20
323.0
 30
-138.39582
 11
8.75
 21
323.0
 31
-138.39582
  0
CIRCLE
  5
5E
330
1F
100
AcDbEntity
  8
1
 62
     7
100
AcDbCircle
 10
15.0
 20
440.0
 30
-5.0
 40
2.5
  0
CIRCLE
  5
5F
330
1F
100
AcDbEntity
  8
1
 62
     7
100
AcDbCircle
 10
-122.5
 20
327.5
 30
27.0
 40
6.35
210
0.0
220
0.0
230
-1.0
  0
CIRCLE
  5
60
330
1F
100
AcDbEntity
  8
1
 62
     7
100
AcDbCircle
 10
15.0
 20
15.0
 30
-2.0
 40
3.0
  0
LINE
  5
61
330
1F
100
AcDbEntity
  8
1
 62
     7
100
AcDbLine
 10
-17.0
 20
385.0
 30
-10.0
 11
-17.0
 21
385.0
 31
-14.0
  0
ARC
  5
62
330
1F
100
AcDbEntity
  8
1
 62
     7
100
AcDbCircle
 10
-24.0
 20
-4.0
 30
400.0
 40
1.0
210
0.0
220
1.0
230
0.0
100
AcDbArc
 50
180.0
 51
270.0
  0
LINE
  5
63
330
1F
100
AcDbEntity
  8
1
 62
     7
100
AcDbLine
 10
3.75
 20
332.0
 30
-138.39582
 11
8.75
 21
332.0
 31
-138.39582
  0
LINE
  5
64
330
1F
100
AcDbEntity
  8
1
 62
     7
100
AcDbLine
 10
-10.388872
 20
360.4
 30
0.0
 11
-10.388872
 21
360.4
 31
-0.27
  0
LINE
  5
65
330
1F
100
AcDbEntity
  8
1
 62
     7
100
AcDbLine
 10
-31.0
 20
410.0
 30
-14.0
 11
-31.0
 21
385.0
 31
-14.0
  0
ARC
  5
66
330
1F
100
AcDbEntity
  8
1
 62
     7
100
AcDbCircle
 10
15.0
 20
361.0
 30
0.27
 40
4.65
210
0.0
220
0.0
230
-1.0
100
AcDbArc
 50
7.413674
 51
172.586326
  0
ARC
  5
67
330
1F
100
AcDbEntity
  8
1
 62
     7
100
AcDbCircle
 10
24.0
 20
-1.0
 30
0.0
 40
1.0
210
0.0
220
-1.0
230
0.0
100
AcDbArc
 50
0.0
 51
90.0
  0
CIRCLE
  5
68
330
1F
100
AcDbEntity
  8
1
 62
     7
100
AcDbCircle
 10
-320.0
 20
-30.0
 30
9.0
 40
5.0
210
-1.0
220
0.0
230
0.0
  0
CIRCLE
  5
69
330
1F
100
AcDbEntity
  8
1
 62
     7
100
AcDbCircle
 10
-80.0
 20
-30.0
 30
9.0
 40
5.0
210
-1.0
220
0.0
230
0.0
  0
LINE
  5
6A
330
1F
100
AcDbEntity
  8
1
 62
     7
100
AcDbLine
 10
7.5
 20
315.0
 30
-27.0
 11
7.5
 21
340.0
 31
-27.0
  0
LINE
  5
6B
330
1F
100
AcDbEntity
  8
1
 62
     7
100
AcDbLine
 10
-19.611128
 20
360.4
 30
0.0
 11
-19.611128
 21
360.4
 31
-0.27
  0
LINE
  5
6C
330
1F
100
AcDbEntity
  8
1
 62
     7
100
AcDbLine
 10
3.75
 20
315.0
 30
-163.39582
 11
3.75
 21
340.0
 31
-163.39582
  0
LINE
  5
6D
330
1F
100
AcDbEntity
  8
1
 62
     7
100
AcDbLine
 10
2.5
 20
78.0
 30
-122.39582
 11
2.5
 21
78.0
 31
-138.39582
  0
ARC
  5
6E
330
1F
100
AcDbEntity
  8
1
 62
     7
100
AcDbCircle
 10
-327.5
 20
-122.39582
 30
-8.75
 40
4.5
210
-1.0
220
-1.224606353822376E-16
230
0.0
100
AcDbArc
 50
0.0
 51
180.0
  0
CIRCLE
  5
6F
330
1F
100
AcDbEntity
  8
1
 62
     7
100
AcDbCircle
 10
15.0
 20
361.0
 30
3.690846
 40
2.148304901297135
210
0.0
220
0.0
230
-1.0
  0
LINE
  5
70
330
1F
100
AcDbEntity
  8
1
 62
     7
100
AcDbLine
 10
-9.0
 20
400.0
 30
-45.0
 11
-9.0
 21
400.0
 31
-10.0
  0
LINE
  5
71
330
1F
100
AcDbEntity
  8
1
 62
     7
100
AcDbLine
 10
-2.5
 20
400.0
 30
-24.0
 11
-2.5
 21
400.0
 31
-8.0
  0
LINE
  5
72
330
1F
100
AcDbEntity
  8
1
 62
     7
100
AcDbLine
 10
7.5
 20
70.0
 30
-32.0
 11
7.5
 21
95.0
 31
-32.0
  0
LINE
  5
73
330
1F
100
AcDbEntity
  8
1
 62
     7
100
AcDbLine
 10
2.5
 20
70.0
 30
-7.0
 11
2.5
 21
95.0
 31
-7.0
  0
ARC
  5
74
330
1F
100
AcDbEntity
  8
1
 62
     7
100
AcDbCircle
 10
24.0
 20
-4.0
 30
0.0
 40
1.0
210
0.0
220
-1.0
230
0.0
100
AcDbArc
 50
-90.0
 51
0.0
  0
LINE
  5
75
330
1F
100
AcDbEntity
  8
1
 62
     7
100
AcDbLine
 10
7.5
 20
352.0
 30
-5.0
 11
7.5
 21
452.0
 31
-5.0
  0
CIRCLE
  5
76
330
1F
100
AcDbEntity
  8
1
 62
     7
100
AcDbCircle
 10
-80.0
 20
-30.0
 30
29.0
 40
5.0
210
-1.0
220
0.0
230
0.0
  0
LINE
  5
77
330
1F
100
AcDbEntity
  8
1
 62
     7
100
AcDbLine
 10
-5.5
 20
0.0
 30
-5.0
 11
-24.0
 21
0.0
 31
-5.0
  0
LINE
  5
78
330
1F
100
AcDbEntity
  8
1
 62
     7
100
AcDbLine
 10
3.75
 20
323.0
 30
-122.39582
 11
8.75
 21
323.0
 31
-122.39582
  0
ARC
  5
79
330
1F
100
AcDbEntity
  8
1
 62
     7
100
AcDbCircle
 10
15.0
 20
361.0
 30
0.0
 40
4.65
210
0.0
220
0.0
230
-1.0
100
AcDbArc
 50
187.413674
 51
352.586326
  0
CIRCLE
  5
7A
330
1F
100
AcDbEntity
  8
1
 62
     7
100
AcDbCircle
 10
-15.0
 20
361.0
 30
-5.0
 40
3.0
  0
LINE
  5
7B
330
1F
100
AcDbEntity
  8
1
 62
     7
100
AcDbLine
 10
-25.0
 20
0.0
 30
-4.0
 11
-25.0
 21
0.0
 31
-1.0
  0
ARC
  5
7C
330
1F
100
AcDbEntity
  8
1
 62
     7
100
AcDbCircle
 10
-5.5
 20
-8.0
 30
0.0
 40
3.0
210
0.0
220
1.0
230
0.0
100
AcDbArc
 50
0.0
 51
90.0
  0
LINE
  5
7D
330
1F
100
AcDbEntity
  8
1
 62
     7
100
AcDbLine
 10
7.5
 20
315.0
 30
-32.0
 11
152.5
 21
315.0
 31
-32.0
  0
LINE
  5
7E
330
1F
100
AcDbEntity
  8
1
 62
     7
100
AcDbLine
 10
-24.0
 20
400.0
 30
0.0
 11
-24.0
 21
0.0
 31
0.0
  0
LINE
  5
7F
330
1F
100
AcDbEntity
  8
1
 62
     7
100
AcDbLine
 10
2.5
 20
95.0
 30
-7.0
 11
2.5
 21
95.0
 31
-163.39582
  0
ARC
  5
80
330
1F
100
AcDbEntity
  8
1
 62
     7
100
AcDbCircle
 10
15.0
 20
36.0
 30
0.0
 40
4.65
210
0.0
220
0.0
230
-1.0
100
AcDbArc
 50
187.413674
 51
352.586326
  0
LINE
  5
81
330
1F
100
AcDbEntity
  8
1
 62
     7
100
AcDbLine
 10
-19.611128
 20
35.4
 30
0.0
 11
-10.388872
 21
35.4
 31
0.0
  0
LINE
  5
82
330
1F
100
AcDbEntity
  8
1
 62
     7
100
AcDbLine
 10
-17.0
 20
385.0
 30
-10.0
 11
-17.0
 21
410.0
 31
-10.0
  0
CIRCLE
  5
83
330
1F
100
AcDbEntity
  8
1
 62
     7
100
AcDbCircle
 10
-15.0
 20
414.0
 30
9.0
 40
2.5
210
0.0
220
0.0
230
-1.0
  0
CIRCLE
  5
84
330
1F
100
AcDbEntity
  8
1
 62
     7
100
AcDbCircle
 10
-320.0
 20
-13.996382
 30
43.187656
 40
5.0
210
-0.9063077870366501
220
0.0
230
-0.4226182617406995
  0
LINE
  5
85
330
1F
100
AcDbEntity
  8
1
 62
     7
100
AcDbLine
 10
152.5
 20
340.0
 30
-27.0
 11
7.5
 21
340.0
 31
-27.0
  0
CIRCLE
  5
86
330
1F
100
AcDbEntity
  8
1
 62
     7
100
AcDbCircle
 10
-15.0
 20
361.0
 30
-2.0
 40
3.0
  0
LINE
  5
87
330
1F
100
AcDbEntity
  8
1
 62
     7
100
AcDbLine
 10
1.5
 20
400.0
 30
-25.0
 11
1.5
 21
0.0
 31
-25.0
  0
LINE
  5
88
330
1F
100
AcDbEntity
  8
1
 62
     7
100
AcDbLine
 10
-35.0
 20
400.0
 30
-10.0
 11
-35.0
 21
0.0
 31
-10.0
  0
ARC
  5
89
330
1F
100
AcDbEntity
  8
1
 62
     7
100
AcDbCircle
 10
15.0
 20
36.0
 30
0.27
 40
4.65
210
0.0
220
0.0
230
-1.0
100
AcDbArc
 50
187.413674
 51
352.586326
  0
LINE
  5
8A
330
1F
100
AcDbEntity
  8
1
 62
     7
100
AcDbLine
 10
7.5
 20
87.0
 30
-138.39582
 11
7.5
 21
87.0
 31
-122.39582
  0
LINE
  5
8B
330
1F
100
AcDbEntity
  8
1
 62
     7
100
AcDbLine
 10
3.75
 20
340.0
 30
-7.0
 11
8.75
 21
340.0
 31
-7.0
  0
LINE
  5
8C
330
1F
100
AcDbEntity
  8
1
 62
     7
100
AcDbLine
 10
-2.5
 20
400.0
 30
-24.0
 11
-2.5
 21
0.0
 31
-24.0
  0
ARC
  5
8D
330
1F
100
AcDbEntity
  8
1
 62
     7
100
AcDbCircle
 10
82.5
 20
-138.39582
 30
7.5
 40
4.5
210
1.0
220
0.0
230
0.0
100
AcDbArc
 50
-180.0
 51
0.0
  0
LINE
  5
8E
330
1F
100
AcDbEntity
  8
1
 62
     7
100
AcDbLine
 10
-24.0
 20
0.0
 30
0.0
 11
24.0
 21
0.0
 31
0.0
  0
ARC
  5
8F
330
1F
100
AcDbEntity
  8
1
 62
     7
100
AcDbCircle
 10
15.0
 20
361.0
 30
0.27
 40
4.65
210
0.0
220
0.0
230
-1.0
100
AcDbArc
 50
187.413674
 51
352.586326
  0
LINE
  5
90
330
1F
100
AcDbEntity
  8
1
 62
     7
100
AcDbLine
 10
-9.0
 20
400.0
 30
-10.0
 11
-9.0
 21
0.0
 31
-10.0
  0
LINE
  5
91
330
1F
100
AcDbEntity
  8
1
 62
     7
100
AcDbLine
 10
-10.388872
 20
361.6
 30
0.0
 11
-19.611128
 21
361.6
 31
0.0
  0
LINE
  5
92
330
1F
100
AcDbEntity
  8
1
 62
     7
100
AcDbLine
 10
152.5
 20
315.0
 30
-32.0
 11
152.5
 21
340.0
 31
-32.0
  0
CIRCLE
  5
93
330
1F
100
AcDbEntity
  8
1
 62
     7
100
AcDbCircle
 10
-15.0
 20
36.0
 30
-5.0
 40
2.067
  0
LINE
  5
94
330
1F
100
AcDbEntity
  8
1
 62
     7
100
AcDbLine
 10
25.0
 20
0.0
 30
-4.0
 11
25.0
 21
400.0
 31
-4.0
  0
LINE
  5
95
330
1F
100
AcDbEntity
  8
1
 62
     7
100
AcDbLine
 10
-4.0
 20
400.0
 30
-45.0
 11
-9.0
 21
400.0
 31
-45.0
  0
CIRCLE
  5
96
330
1F
100
AcDbEntity
  8
1
 62
     7
100
AcDbCircle
 10
-15.0
 20
36.0
 30
-5.0
 40
3.0
  0
LINE
  5
97
330
1F
100
AcDbEntity
  8
1
 62
     7
100
AcDbLine
 10
-9.0
 20
0.0
 30
-45.0
 11
-9.0
 21
0.0
 31
-10.0
  0
LINE
  5
98
330
1F
100
AcDbEntity
  8
1
 62
     7
100
AcDbLine
 10
8.75
 20
315.0
 30
-163.39582
 11
8.75
 21
340.0
 31
-163.39582
  0
LINE
  5
99
330
1F
100
AcDbEntity
  8
1
 62
     7
100
AcDbLine
 10
-29.0
 20
0.0
 30
0.0
 11
-29.0
 21
0.0
 31
-5.0
  0
LINE
  5
9A
330
1F
100
AcDbEntity
  8
1
 62
     7
100
AcDbLine
 10
25.0
 20
400.0
 30
-1.0
 11
25.0
 21
400.0
 31
-4.0
  0
LINE
  5
9B
330
1F
100
AcDbEntity
  8
1
 62
     7
100
AcDbLine
 10
-31.0
 20
385.0
 30
-14.0
 11
-17.0
 21
385.0
 31
-14.0
  0
CIRCLE
  5
9C
330
1F
100
AcDbEntity
  8
1
 62
     7
100
AcDbCircle
 10
122.5
 20
82.5
 30
-32.0
 40
4.0
  0
ARC
  5
9D
330
1F
100
AcDbEntity
  8
1
 62
     7
100
AcDbCircle
 10
24.0
 20
-1.0
 30
400.0
 40
1.0
210
0.0
220
1.0
230
0.0
100
AcDbArc
 50
0.0
 51
90.0
  0
LINE
  5
9E
330
1F
100
AcDbEntity
  8
1
 62
     7
100
AcDbLine
 10
-45.0
 20
400.0
 30
0.0
 11
-45.0
 21
0.0
 31
0.0
  0
ARC
  5
9F
330
1F
100
AcDbEntity
  8
1
 62
     7
100
AcDbCircle
 10
15.0
 20
36.0
 30
0.0
 40
4.65
210
0.0
220
0.0
230
-1.0
100
AcDbArc
 50
7.413674
 51
172.586326
  0
CIRCLE
  5
A0
330
1F
100
AcDbEntity
  8
1
 62
     7
100
AcDbCircle
 10
15.0
 20
361.0
 30
12.0
 40
2.0
210
0.0
220
0.0
230
-1.0
  0
LINE
  5
A1
330
1F
100
AcDbEntity
  8
1
 62
     7
100
AcDbLine
 10
22.5
 20
452.0
 30
-5.0
 11
22.5
 21
452.0
 31
-9.0
  0
CIRCLE
  5
A2
330
1F
100
AcDbEntity
  8
1
 62
     7
100
AcDbCircle
 10
-15.0
 20
440.0
 30
9.0
 40
2.5
210
0.0
220
0.0
230
-1.0
  0
LINE
  5
A3
330
1F
100
AcDbEntity
  8
1
 62
     7
100
AcDbLine
 10
152.5
 20
315.0
 30
-32.0
 11
152.5
 21
315.0
 31
-27.0
  0
LINE
  5
A4
330
1F
100
AcDbEntity
  8
1
 62
     7
100
AcDbLine
 10
-25.0
 20
400.0
 30
-4.0
 11
-25.0
 21
0.0
 31
-4.0
  0
ARC
  5
A5
330
1F
100
AcDbEntity
  8
1
 62
     7
100
AcDbCircle
 10
-1.5
 20
-24.0
 30
400.0
 40
1.0
210
0.0
220
1.0
230
0.0
100
AcDbArc
 50
180.0
 51
270.0
  0
CIRCLE
  5
A6
330
1F
100
AcDbEntity
  8
1
 62
     7
100
AcDbCircle
 10
15.0
 20
36.0
 30
3.690846
 40
2.148304901297135
210
0.0
220
0.0
230
-1.0
  0
LINE
  5
A7
330
1F
100
AcDbEntity
  8
1
 62
     7
100
AcDbLine
 10
-4.0
 20
400.0
 30
-45.0
 11
-4.0
 21
0.0
 31
-45.0
  0
CIRCLE
  5
A8
330
1F
100
AcDbEntity
  8
1
 62
     7
100
AcDbCircle
 10
15.0
 20
36.0
 30
2.7
 40
2.22
210
0.0
220
0.0
230
-1.0
  0
LINE
  5
A9
330
1F
100
AcDbEntity
  8
1
 62
     7
100
AcDbLine
 10
7.5
 20
95.0
 30
-32.0
 11
152.5
 21
95.0
 31
-32.0
  0
SPLINE
  5
AA
330
1F
100
AcDbEntity
  8
1
 62
     7
100
AcDbSpline
210
0.0
220
1.0
230
0.0
 70
     8
 71
     3
 72
     8
 73
     4
 74
     0
 42
0.000000001
 43
0.0000000001
 40
0.0
 40
0.0
 40
0.0
 40
0.0
 40
1.0
 40
1.0
 40
1.0
 40
1.0
 10
-18.46848670171879
 20
36.59999999999999
 30
-1.399999999999989
 10
-18.85004259479891
 20
36.59999999999999
 30
-1.024027971275317
 10
-19.23076059638369
 20
36.59999999999999
 30
-0.6471875289962353
 10
-19.61112784468182
 20
36.59999999999999
 30
-0.2699999999999985
  0
LINE
  5
AB
330
1F
100
AcDbEntity
  8
1
 62
     7
100
AcDbLine
 10
-31.0
 20
385.0
 30
-10.0
 11
-17.0
 21
385.0
 31
-10.0
  0
LINE
  5
AC
330
1F
100
AcDbEntity
  8
1
 62
     7
100
AcDbLine
 10
7.5
 20
315.0
 30
-32.0
 11
7.5
 21
340.0
 31
-32.0
  0
LINE
  5
AD
330
1F
100
AcDbEntity
  8
1
 62
     7
100
AcDbLine
 10
7.5
 20
95.0
 30
-163.39582
 11
2.5
 21
95.0
 31
-163.39582
  0
CIRCLE
  5
AE
330
1F
100
AcDbEntity
  8
1
 62
     7
100
AcDbCircle
 10
15.0
 20
361.0
 30
2.7
 40
2.22
210
0.0
220
0.0
230
-1.0
  0
LINE
  5
AF
330
1F
100
AcDbEntity
  8
1
 62
     7
100
AcDbLine
 10
152.5
 20
70.0
 30
-32.0
 11
152.5
 21
70.0
 31
-27.0
  0
LINE
  5
B0
330
1F
100
AcDbEntity
  8
1
 62
     7
100
AcDbLine
 10
-6.0
 20
0.0
 30
-5.0
 11
-6.0
 21
400.0
 31
-5.0
  0
LINE
  5
B1
330
1F
100
AcDbEntity
  8
1
 62
     7
100
AcDbLine
 10
7.5
 20
87.0
 30
-122.39582
 11
2.5
 21
87.0
 31
-122.39582
  0
LINE
  5
B2
330
1F
100
AcDbEntity
  8
1
 62
     7
100
AcDbLine
 10
-24.0
 20
400.0
 30
0.0
 11
24.0
 21
400.0
 31
0.0
  0
LINE
  5
B3
330
1F
100
AcDbEntity
  8
1
 62
     7
100
AcDbLine
 10
-29.0
 20
400.0
 30
-5.0
 11
-29.0
 21
0.0
 31
-5.0
  0
LINE
  5
B4
330
1F
100
AcDbEntity
  8
1
 62
     7
100
AcDbLine
 10
8.75
 20
315.0
 30
-7.0
 11
8.75
 21
315.0
 31
-163.39582
  0
ARC
  5
B5
330
1F
100
AcDbEntity
  8
1
 62
     7
100
AcDbCircle
 10
-1.5
 20
-24.0
 30
0.0
 40
1.0
210
0.0
220
-1.0
230
0.0
100
AcDbArc
 50
180.0
 51
270.0
  0
LINE
  5
B6
330
1F
100
AcDbEntity
  8
1
 62
     7
100
AcDbLine
 10
-4.0
 20
0.0
 30
-45.0
 11
-9.0
 21
0.0
 31
-45.0
  0
LINE
  5
B7
330
1F
100
AcDbEntity
  8
1
 62
     7
100
AcDbLine
 10
1.5
 20
400.0
 30
-25.0
 11
-1.5
 21
400.0
 31
-25.0
  0
LINE
  5
B8
330
1F
100
AcDbEntity
  8
1
 62
     7
100
AcDbLine
 10
152.5
 20
70.0
 30
-32.0
 11
152.5
 21
95.0
 31
-32.0
  0
CIRCLE
  5
B9
330
1F
100
AcDbEntity
  8
1
 62
     7
100
AcDbCircle
 10
-80.0
 20
-13.996382
 30
43.187656
 40
5.0
210
-0.9063077870366501
220
0.0
230
-0.4226182617406995
  0
LINE
  5
BA
330
1F
100
AcDbEntity
  8
1
 62
     7
100
AcDbLine
 10
-2.5
 20
0.0
 30
-24.0
 11
-2.5
 21
0.0
 31
-8.0
  0
LINE
  5
BB
330
1F
100
AcDbEntity
  8
1
 62
     7
100
AcDbLine
 10
7.5
 20
95.0
 30
-7.0
 11
7.5
 21
95.0
 31
-163.39582
  0
ARC
  5
BC
330
1F
100
AcDbEntity
  8
1
 62
     7
100
AcDbCircle
 10
15.0
 20
36.0
 30
0.27
 40
4.65
210
0.0
220
0.0
230
-1.0
100
AcDbArc
 50
7.413674
 51
172.586326
  0
LINE
  5
BD
330
1F
100
AcDbEntity
  8
1
 62
     7
100
AcDbLine
 10
-5.5
 20
400.0
 30
-5.0
 11
-5.5
 21
0.0
 31
-5.0
  0
CIRCLE
  5
BE
330
1F
100
AcDbEntity
  8
1
 62
     7
100
AcDbCircle
 10
15.0
 20
41.0
 30
-5.0
 40
3.0
  0
LINE
  5
BF
330
1F
100
AcDbEntity
  8
1
 62
     7
100
AcDbLine
 10
5.5
 20
0.0
 30
-5.0
 11
5.5
 21
400.0
 31
-5.0
  0
CIRCLE
  5
C0
330
1F
100
AcDbEntity
  8
1
 62
     7
100
AcDbCircle
 10
15.0
 20
36.0
 30
12.0
 40
2.0
210
0.0
220
0.0
230
-1.0
  0
LINE
  5
C1
330
1F
100
AcDbEntity
  8
1
 62
     7
100
AcDbLine
 10
7.5
 20
352.0
 30
-5.0
 11
22.5
 21
352.0
 31
-5.0
  0
ARC
  5
C2
330
1F
100
AcDbEntity
  8
1
 62
     7
100
AcDbCircle
 10
24.0
 20
-4.0
 30
400.0
 40
1.0
210
0.0
220
1.0
230
0.0
100
AcDbArc
 50
-90.0
 51
0.0
  0
CIRCLE
  5
C3
330
1F
100
AcDbEntity
  8
1
 62
     7
100
AcDbCircle
 10
15.0
 20
36.0
 30
4.3
 40
2.5
210
0.0
220
0.0
230
-1.0
  0
LINE
  5
C4
330
1F
100
AcDbEntity
  8
1
 62
     7
100
AcDbLine
 10
-11.531513
 20
35.4
 30
-1.4
 11
-18.468487
 21
35.4
 31
-1.4
  0
CIRCLE
  5
C5
330
1F
100
AcDbEntity
  8
1
 62
     7
100
AcDbCircle
 10
15.0
 20
414.0
 30
-5.0
 40
2.5
  0
LINE
  5
C6
330
1F
100
AcDbEntity
  8
1
 62
     7
100
AcDbLine
 10
-2.5
 20
0.0
 30
-8.0
 11
-2.5
 21
400.0
 31
-8.0
  0
LINE
  5
C7
330
1F
100
AcDbEntity
  8
1
 62
     7
100
AcDbLine
 10
152.5
 20
340.0
 30
-32.0
 11
152.5
 21
340.0
 31
-27.0
  0
CIRCLE
  5
C8
330
1F
100
AcDbEntity
  8
1
 62
     7
100
AcDbCircle
 10
15.0
 20
15.0
 30
-5.0
 40
3.0
  0
LINE
  5
C9
330
1F
100
AcDbEntity
  8
1
 62
     7
100
AcDbLine
 10
-31.0
 20
410.0
 30
-10.0
 11
-31.0
 21
410.0
 31
-14.0
  0
ARC
  5
CA
330
1F
100
AcDbEntity
  8
1
 62
     7
100
AcDbCircle
 10
1.5
 20
-24.0
 30
400.0
 40
1.0
210
0.0
220
1.0
230
0.0
100
AcDbArc
 50
-90.0
 51
0.0
  0
LINE
  5
CB
330
1F
100
AcDbEntity
  8
1
 62
     7
100
AcDbLine
 10
3.75
 20
315.0
 30
-7.0
 11
8.75
 21
315.0
 31
-7.0
  0
CIRCLE
  5
CC
330
1F
100
AcDbEntity
  8
1
 62
     7
100
AcDbCircle
 10
-122.5
 20
82.5
 30
27.0
 40
6.35
210
0.0
220
0.0
230
-1.0
  0
ARC
  5
CD
330
1F
100
AcDbEntity
  8
1
 62
     7
100
AcDbCircle
 10
-24.0
 20
-1.0
 30
400.0
 40
1.0
210
0.0
220
1.0
230
0.0
100
AcDbArc
 50
90.0
 51
180.0
  0
CIRCLE
  5
CE
330
1F
100
AcDbEntity
  8
1
 62
     7
100
AcDbCircle
 10
320.0
 20
-13.996382
 30
-121.187656
 40
9.5
210
0.9063077870366499
220
0.0
230
0.4226182617406994
  0
LINE
  5
CF
330
1F
100
AcDbEntity
  8
1
 62
     7
100
AcDbLine
 10
2.5
 20
400.0
 30
-8.0
 11
2.5
 21
400.0
 31
-24.0
  0
ARC
  5
D0
330
1F
100
AcDbEntity
  8
1
 62
     7
100
AcDbCircle
 10
82.5
 20
-122.39582
 30
7.5
 40
4.5
210
1.0
220
0.0
230
0.0
100
AcDbArc
 50
0.0
 51
180.0
  0
ARC
  5
D1
330
1F
100
AcDbEntity
  8
1
 62
     7
100
AcDbCircle
 10
15.0
 20
361.0
 30
0.0
 40
4.65
210
0.0
220
0.0
230
-1.0
100
AcDbArc
 50
7.413674
 51
172.586326
  0
LINE
  5
D2
330
1F
100
AcDbEntity
  8
1
 62
     7
100
AcDbLine
 10
3.75
 20
340.0
 30
-7.0
 11
3.75
 21
315.0
 31
-7.0
  0
LINE
  5
D3
330
1F
100
AcDbEntity
  8
1
 62
     7
100
AcDbLine
 10
-10.388872
 20
361.6
 30
-0.27
 11
-10.388872
 21
361.6
 31
0.0
  0
LINE
  5
D4
330
1F
100
AcDbEntity
  8
1
 62
     7
100
AcDbLine
 10
1.5
 20
0.0
 30
-25.0
 11
-1.5
 21
0.0
 31
-25.0
  0
LINE
  5
D5
330
1F
100
AcDbEntity
  8
1
 62
     7
100
AcDbLine
 10
8.75
 20
332.0
 30
-122.39582
 11
8.75
 21
332.0
 31
-138.39582
  0
SPLINE
  5
D6
330
1F
100
AcDbEntity
  8
1
 62
     7
100
AcDbSpline
210
0.0
220
1.0
230
0.0
 70
     8
 71
     3
 72
     8
 73
     4
 74
     0
 42
0.000000001
 43
0.0000000001
 40
0.0
 40
0.0
 40
0.0
 40
0.0
 40
1.0
 40
1.0
 40
1.0
 40
1.0
 10
-18.46848670171879
 20
361.6
 30
-1.39999999999999
 10
-18.85004259479891
 20
361.6
 30
-1.024027971275317
 10
-19.23076059638369
 20
361.6
 30
-0.6471875289962363
 10
-19.61112784468182
 20
361.6
 30
-0.2699999999999996
  0
CIRCLE
  5
D7
330
1F
100
AcDbEntity
  8
1
 62
     7
100
AcDbCircle
 10
15.0
 20
361.0
 30
0.0
 40
5.0
210
0.0
220
0.0
230
-1.0
  0
CIRCLE
  5
D8
330
1F
100
AcDbEntity
  8
1
 62
     7
100
AcDbCircle
 10
-320.0
 20
-30.0
 30
29.0
 40
5.0
210
-1.0
220
0.0
230
0.0
  0
LINE
  5
D9
330
1F
100
AcDbEntity
  8
1
 62
     7
100
AcDbLine
 10
-29.0
 20
400.0
 30
0.0
 11
-29.0
 21
0.0
 31
0.0
  0
CIRCLE
  5
DA
330
1F
100
AcDbEntity
  8
1
 62
     7
100
AcDbCircle
 10
-15.0
 20
15.0
 30
0.0
 40
5.0
210
0.0
220
0.0
230
-1.0
  0
LINE
  5
DB
330
1F
100
AcDbEntity
  8
1
 62
     7
100
AcDbLine
 10
2.5
 20
400.0
 30
-8.0
 11
2.5
 21
0.0
 31
-8.0
  0
LINE
  5
DC
330
1F
100
AcDbEntity
  8
1
 62
     7
100
AcDbLine
 10
152.5
 20
70.0
 30
-27.0
 11
152.5
 21
95.0
 31
-27.0
  0
CIRCLE
  5
DD
330
1F
100
AcDbEntity
  8
1
 62
     7
100
AcDbCircle
 10
80.0
 20
-13.996382
 30
-113.187656
 40
9.5
210
0.9063077870366499
220
0.0
230
0.4226182617406994
  0
LINE
  5
DE
330
1F
100
AcDbEntity
  8
1
 62
     7
100
AcDbLine
 10
-10.388872
 20
36.6
 30
0.0
 11
-19.611128
 21
36.6
 31
0.0
  0
LINE
  5
DF
330
1F
100
AcDbEntity
  8
1
 62
     7
100
AcDbLine
 10
152.5
 20
70.0
 30
-27.0
 11
7.5
 21
70.0
 31
-27.0
  0
LINE
  5
E0
330
1F
100
AcDbEntity
  8
1
 62
     7
100
AcDbLine
 10
-45.0
 20
0.0
 30
0.0
 11
-29.0
 21
0.0
 31
0.0
  0
LINE
  5
E1
330
1F
100
AcDbEntity
  8
1
 62
     7
100
AcDbLine
 10
7.5
 20
95.0
 30
-27.0
 11
7.5
 21
95.0
 31
-32.0
  0
LINE
  5
E2
330
1F
100
AcDbEntity
  8
1
 62
     7
100
AcDbLine
 10
-4.0
 20
0.0
 30
-7.0
 11
-4.0
 21
0.0
 31
-45.0
  0
LINE
  5
E3
330
1F
100
AcDbEntity
  8
1
 62
     7
100
AcDbLine
 10
25.0
 20
0.0
 30
-1.0
 11
25.0
 21
0.0
 31
-4.0
  0
LINE
  5
E4
330
1F
100
AcDbEntity
  8
1
 62
     7
100
AcDbLine
 10
2.5
 20
70.0
 30
-163.39582
 11
2.5
 21
70.0
 31
-7.0
  0
LINE
  5
E5
330
1F
100
AcDbEntity
  8
1
 62
     7
100
AcDbLine
 10
24.0
 20
0.0
 30
-5.0
 11
5.5
 21
0.0
 31
-5.0
  0
LINE
  5
E6
330
1F
100
AcDbEntity
  8
1
 62
     7
100
AcDbLine
 10
22.5
 20
352.0
 30
-9.0
 11
7.5
 21
352.0
 31
-9.0
  0
LINE
  5
E7
330
1F
100
AcDbEntity
  8
1
 62
     7
100
AcDbLine
 10
7.5
 20
70.0
 30
-163.39582
 11
2.5
 21
70.0
 31
-163.39582
  0
LINE
  5
E8
330
1F
100
AcDbEntity
  8
1
 62
     7
100
AcDbLine
 10
-25.0
 20
0.0
 30
-1.0
 11
-25.0
 21
400.0
 31
-1.0
  0
ARC
  5
E9
330
1F
100
AcDbEntity
  8
1
 62
     7
100
AcDbCircle
 10
82.5
 20
-138.39582
 30
2.5
 40
4.5
210
1.0
220
0.0
230
0.0
100
AcDbArc
 50
-180.0
 51
0.0
  0
LINE
  5
EA
330
1F
100
AcDbEntity
  8
1
 62
     7
100
AcDbLine
 10
-19.611128
 20
36.6
 30
-0.27
 11
-19.611128
 21
36.6
 31
0.0
  0
LINE
  5
EB
330
1F
100
AcDbEntity
  8
1
 62
     7
100
AcDbLine
 10
-11.531513
 20
36.6
 30
-1.4
 11
-18.468487
 21
36.6
 31
-1.4
  0
LINE
  5
EC
330
1F
100
AcDbEntity
  8
1
 62
     7
100
AcDbLine
 10
7.5
 20
452.0
 30
-5.0
 11
22.5
 21
452.0
 31
-5.0
  0
LINE
  5
ED
330
1F
100
AcDbEntity
  8
1
 62
     7
100
AcDbLine
 10
7.5
 20
340.0
 30
-32.0
 11
152.5
 21
340.0
 31
-32.0
  0
LINE
  5
EE
330
1F
100
AcDbEntity
  8
1
 62
     7
100
AcDbLine
 10
7.5
 20
78.0
 30
-138.39582
 11
2.5
 21
78.0
 31
-138.39582
  0
LINE
  5
EF
330
1F
100
AcDbEntity
  8
1
 62
     7
100
AcDbLine
 10
-4.0
 20
400.0
 30
-7.0
 11
-4.0
 21
0.0
 31
-7.0
  0
CIRCLE
  5
F0
330
1F
100
AcDbEntity
  8
1
 62
     7
100
AcDbCircle
 10
15.0
 20
36.0
 30
0.0
 40
5.0
210
0.0
220
0.0
230
-1.0
  0
LINE
  5
F1
330
1F
100
AcDbEntity
  8
1
 62
     7
100
AcDbLine
 10
-31.0
 20
385.0
 30
-10.0
 11
-31.0
 21
385.0
 31
-14.0
  0
LINE
  5
F2
330
1F
100
AcDbEntity
  8
1
 62
     7
100
AcDbLine
 10
-17.0
 20
385.0
 30
-14.0
 11
-17.0
 21
410.0
 31
-14.0
  0
ARC
  5
F3
330
1F
100
AcDbEntity
  8
1
 62
     7
100
AcDbCircle
 10
15.0
 20
361.0
 30
1.4
 40
3.52
210
0.0
220
1.848071884918472E-16
230
-1.0
100
AcDbArc
 50
-9.814248
 51
9.814248
  0
CIRCLE
  5
F4
330
1F
100
AcDbEntity
  8
1
 62
     7
100
AcDbCircle
 10
-15.0
 20
36.0
 30
-11.5
 40
2.5
  0
ARC
  5
F5
330
1F
100
AcDbEntity
  8
1
 62
     7
100
AcDbCircle
 10
-327.5
 20
-138.39582
 30
-3.75
 40
4.5
210
-1.0
220
-1.224606353822376E-16
230
0.0
100
AcDbArc
 50
-180.0
 51
0.0
  0
ARC
  5
F6
330
1F
100
AcDbEntity
  8
1
 62
     7
100
AcDbCircle
 10
-5.5
 20
-8.0
 30
-400.0
 40
3.0
210
0.0
220
-1.0
230
0.0
100
AcDbArc
 50
0.0
 51
90.0
  0
LINE
  5
F7
330
1F
100
AcDbEntity
  8
1
 62
     7
100
AcDbLine
 10
7.5
 20
78.0
 30
-122.39582
 11
2.5
 21
78.0
 31
-122.39582
  0
LINE
  5
F8
330
1F
100
AcDbEntity
  8
1
 62
     7
100
AcDbLine
 10
7.5
 20
95.0
 30
-163.39582
 11
7.5
 21
70.0
 31
-163.39582
  0
LINE
  5
F9
330
1F
100
AcDbEntity
  8
1
 62
     7
100
AcDbLine
 10
7.5
 20
70.0
 30
-7.0
 11
7.5
 21
95.0
 31
-7.0
  0
CIRCLE
  5
FA
330
1F
100
AcDbEntity
  8
1
 62
     7
100
AcDbCircle
 10
15.0
 20
361.0
 30
4.3
 40
2.5
210
0.0
220
0.0
230
-1.0
  0
LINE
  5
FB
330
1F
100
AcDbEntity
  8
1
 62
     7
100
AcDbLine
 10
-5.5
 20
400.0
 30
-5.0
 11
-24.0
 21
400.0
 31
-5.0
  0
LINE
  5
FC
330
1F
100
AcDbEntity
  8
1
 62
     7
100
AcDbLine
 10
-11.531513
 20
360.4
 30
-1.4
 11
-18.468487
 21
360.4
 31
-1.4
  0
LINE
  5
FD
330
1F
100
AcDbEntity
  8
1
 62
     7
100
AcDbLine
 10
-19.611128
 20
360.4
 30
0.0
 11
-10.388872
 21
360.4
 31
0.0
  0
LINE
  5
FE
330
1F
100
AcDbEntity
  8
1
 62
     7
100
AcDbLine
 10
8.75
 20
340.0
 30
-7.0
 11
8.75
 21
315.0
 31
-7.0
  0
ARC
  5
FF
330
1F
100
AcDbEntity
  8
1
 62
     7
100
AcDbCircle
 10
-327.5
 20
-122.39582
 30
-3.75
 40
4.5
210
-1.0
220
-1.224606353822376E-16
230
0.0
100
AcDbArc
 50
0.0
 51
180.0
  0
LINE
  5
100
330
1F
100
AcDbEntity
  8
1
 62
     7
100
AcDbLine
 10
-4.0
 20
400.0
 30
-7.0
 11
-4.0
 21
400.0
 31
-45.0
  0
LINE
  5
101
330
1F
100
AcDbEntity
  8
1
 62
     7
100
AcDbLine
 10
7.5
 20
70.0
 30
-32.0
 11
152.5
 21
70.0
 31
-32.0
  0
LINE
  5
102
330
1F
100
AcDbEntity
  8
1
 62
     7
100
AcDbLine
 10
2.5
 20
0.0
 30
-8.0
 11
2.5
 21
0.0
 31
-24.0
  0
ARC
  5
103
330
1F
100
AcDbEntity
  8
1
 62
     7
100
AcDbCircle
 10
1.5
 20
-24.0
 30
0.0
 40
1.0
210
0.0
220
-1.0
230
0.0
100
AcDbArc
 50
-90.0
 51
0.0
  0
LINE
  5
104
330
1F
100
AcDbEntity
  8
1
 62
     7
100
AcDbLine
 10
22.5
 20
352.0
 30
-5.0
 11
22.5
 21
352.0
 31
-9.0
  0
CIRCLE
  5
105
330
1F
100
AcDbEntity
  8
1
 62
     7
100
AcDbCircle
 10
-15.0
 20
361.0
 30
-10.0
 40
2.067
  0
LINE
  5
106
330
1F
100
AcDbEntity
  8
1
 62
     7
100
AcDbLine
 10
-45.0
 20
400.0
 30
0.0
 11
-29.0
 21
400.0
 31
0.0
  0
LINE
  5
107
330
1F
100
AcDbEntity
  8
1
 62
     7
100
AcDbLine
 10
22.5
 20
352.0
 30
-5.0
 11
22.5
 21
452.0
 31
-5.0
  0
LINE
  5
108
330
1F
100
AcDbEntity
  8
1
 62
     7
100
AcDbLine
 10
-17.0
 20
410.0
 30
-10.0
 11
-17.0
 21
410.0
 31
-14.0
  0
SPLINE
  5
109
330
1F
100
AcDbEntity
  8
1
 62
     7
100
AcDbSpline
210
0.0
220
1.0
230
0.0
 70
     8
 71
     3
 72
     8
 73
     4
 74
     0
 42
0.000000001
 43
0.0000000001
 40
0.0
 40
0.0
 40
0.0
 40
0.0
 40
1.0
 40
1.0
 40
1.0
 40
1.0
 10
-11.53151329828121
 20
36.59999999999999
 30
-1.399999999999988
 10
-11.14995055197586
 20
36.59999999999999
 30
-1.024021218343336
 10
-10.76923761393413
 20
36.59999999999999
 30
-0.6471857542750931
 10
-10.38887215531818
 20
36.59999999999999
 30
-0.2699999999999998
  0
LINE
  5
10A
330
1F
100
AcDbEntity
  8
1
 62
     7
100
AcDbLine
 10
7.5
 20
352.0
 30
-9.0
 11
7.5
 21
352.0
 31
-5.0
  0
LINE
  5
10B
330
1F
100
AcDbEntity
  8
1
 62
     7
100
AcDbLine
 10
-24.0
 20
0.0
 30
-5.0
 11
-24.0
 21
400.0
 31
-5.0
  0
LINE
  5
10C
330
1F
100
AcDbEntity
  8
1
 62
     7
100
AcDbLine
 10
7.5
 20
315.0
 30
-27.0
 11
7.5
 21
315.0
 31
-32.0
  0
CIRCLE
  5
10D
330
1F
100
AcDbEntity
  8
1
 62
     7
100
AcDbCircle
 10
-15.0
 20
41.0
 30
0.0
 40
5.0
210
0.0
220
0.0
230
-1.0
  0
SPLINE
  5
10E
330
1F
100
AcDbEntity
  8
1
 62
     7
100
AcDbSpline
210
-1.725123705850240E-12
220
1.0
230
1.731846432115186E-12
 70
     8
 71
     3
 72
     8
 73
     4
 74
     0
 42
0.000000001
 43
0.0000000001
 40
0.0
 40
0.0
 40
0.0
 40
0.0
 40
1.0
 40
1.0
 40
1.0
 40
1.0
 10
-10.38887215531818
 20
35.40000000000001
 30
-0.27
 10
-10.76923761393413
 20
35.4
 30
-0.6471857542750931
 10
-11.14995055197586
 20
35.4
 30
-1.024021218343336
 10
-11.53151329828121
 20
35.39999999999999
 30
-1.399999999999987
  0
LINE
  5
10F
330
1F
100
AcDbEntity
  8
1
 62
     7
100
AcDbLine
 10
25.0
 20
400.0
 30
-1.0
 11
25.0
 21
0.0
 31
-1.0
  0
ARC
  5
110
330
1F
100
AcDbEntity
  8
1
 62
     7
100
AcDbCircle
 10
82.5
 20
-122.39582
 30
2.5
 40
4.5
210
1.0
220
0.0
230
0.0
100
AcDbArc
 50
0.0
 51
180.0
  0
CIRCLE
  5
111
330
1F
100
AcDbEntity
  8
1
 62
     7
100
AcDbCircle
 10
122.5
 20
327.5
 30
-32.0
 40
4.0
  0
CIRCLE
  5
112
330
1F
100
AcDbEntity
  8
1
 62
     7
100
AcDbCircle
 10
-15.0
 20
36.0
 30
-2.82418
 40
2.14830490129714
  0
CIRCLE
  5
113
330
1F
100
AcDbEntity
  8
1
 62
     7
100
AcDbCircle
 10
122.5
 20
327.5
 30
-29.35
 40
4.0
  0
LINE
  5
114
330
1F
100
AcDbEntity
  8
1
 62
     7
100
AcDbLine
 10
-1.5
 20
0.0
 30
-25.0
 11
-1.5
 21
400.0
 31
-25.0
  0
CIRCLE
  5
115
330
1F
100
AcDbEntity
  8
1
 62
     7
100
AcDbCircle
 10
-15.0
 20
361.0
 30
-2.82418
 40
2.14830490129714
  0
LINE
  5
116
330
1F
100
AcDbEntity
  8
1
 62
     7
100
AcDbLine
 10
3.75
 20
315.0
 30
-163.39582
 11
8.75
 21
315.0
 31
-163.39582
  0
LINE
  5
117
330
1F
100
AcDbEntity
  8
1
 62
     7
100
AcDbLine
 10
24.0
 20
0.0
 30
0.0
 11
24.0
 21
400.0
 31
0.0
  0
CIRCLE
  5
118
330
1F
100
AcDbEntity
  8
1
 62
     7
100
AcDbCircle
 10
320.0
 20
-13.996382
 30
-113.187656
 40
9.5
210
0.9063077870366499
220
0.0
230
0.4226182617406994
  0
ARC
  5
119
330
1F
100
AcDbEntity
  8
1
 62
     7
100
AcDbCircle
 10
-15.0
 20
361.0
 30
-1.4
 40
3.52
100
AcDbArc
 50
-9.814248
 51
9.814248
  0
LINE
  5
11A
330
1F
100
AcDbEntity
  8
1
 62
     7
100
AcDbLine
 10
-10.388872
 20
36.6
 30
-0.27
 11
-10.388872
 21
36.6
 31
0.0
  0
LINE
  5
11B
330
1F
100
AcDbEntity
  8
1
 62
     7
100
AcDbLine
 10
-35.0
 20
0.0
 30
-10.0
 11
-45.0
 21
0.0
 31
0.0
  0
LINE
  5
11C
330
1F
100
AcDbEntity
  8
1
 62
     7
100
AcDbLine
 10
152.5
 20
95.0
 30
-27.0
 11
7.5
 21
95.0
 31
-27.0
  0
LINE
  5
11D
330
1F
100
AcDbEntity
  8
1
 62
     7
100
AcDbLine
 10
-19.611128
 20
361.6
 30
-0.27
 11
-19.611128
 21
361.6
 31
0.0
  0
LINE
  5
11E
330
1F
100
AcDbEntity
  8
1
 62
     7
100
AcDbLine
 10
3.75
 20
340.0
 30
-163.39582
 11
3.75
 21
340.0
 31
-7.0
  0
LINE
  5
11F
330
1F
100
AcDbEntity
  8
1
 62
     7
100
AcDbLine
 10
-11.531513
 20
361.6
 30
-1.4
 11
-18.468487
 21
361.6
 31
-1.4
  0
SPLINE
  5
120
330
1F
100
AcDbEntity
  8
1
 62
     7
100
AcDbSpline
210
0.0
220
1.0
230
0.0
 70
     8
 71
     3
 72
     8
 73
     4
 74
     0
 42
0.000000001
 43
0.0000000001
 40
0.0
 40
0.0
 40
0.0
 40
0.0
 40
1.0
 40
1.0
 40
1.0
 40
1.0
 10
-10.38887215531818
 20
360.4
 30
-0.27
 10
-10.76923761393413
 20
360.4
 30
-0.6471857542750931
 10
-11.14995055197586
 20
360.4
 30
-1.024021218343336
 10
-11.53151329828121
 20
360.4
 30
-1.399999999999987
  0
ARC
  5
121
330
1F
100
AcDbEntity
  8
1
 62
     7
100
AcDbCircle
 10
-327.5
 20
-138.39582
 30
-8.75
 40
4.5
210
-1.0
220
-1.224606353822376E-16
230
0.0
100
AcDbArc
 50
-180.0
 51
0.0
  0
LINE
  5
122
330
1F
100
AcDbEntity
  8
1
 62
     7
100
AcDbLine
 10
7.5
 20
70.0
 30
-27.0
 11
7.5
 21
70.0
 31
-32.0
  0
LINE
  5
123
330
1F
100
AcDbEntity
  8
1
 62
     7
100
AcDbLine
 10
7.5
 20
352.0
 30
-9.0
 11
7.5
 21
452.0
 31
-9.0
  0
LINE
  5
124
330
1F
100
AcDbEntity
  8
1
 62
     7
100
AcDbLine
 10
8.75
 20
323.0
 30
-138.39582
 11
8.75
 21
323.0
 31
-122.39582
  0
CIRCLE
  5
125
330
1F
100
AcDbEntity
  8
1
 62
     7
100
AcDbCircle
 10
-15.0
 20
36.0
 30
-10.0
 40
2.067
  0
LINE
  5
126
330
1F
100
AcDbEntity
  8
1
 62
     7
100
AcDbLine
 10
7.5
 20
70.0
 30
-27.0
 11
7.5
 21
95.0
 31
-27.0
  0
LINE
  5
127
330
1F
100
AcDbEntity
  8
1
 62
     7
100
AcDbLine
 10
-6.0
 20
400.0
 30
-5.0
 11
-4.0
 21
400.0
 31
-7.0
  0
LINE
  5
128
330
1F
100
AcDbEntity
  8
1
 62
     7
100
AcDbLine
 10
-4.0
 20
0.0
 30
-7.0
 11
-6.0
 21
0.0
 31
-5.0
  0
LINE
  5
129
330
1F
100
AcDbEntity
  8
1
 62
     7
100
AcDbLine
 10
-25.0
 20
400.0
 30
-4.0
 11
-25.0
 21
400.0
 31
-1.0
  0
CIRCLE
  5
12A
330
1F
100
AcDbEntity
  8
1
 62
     7
100
AcDbCircle
 10
-15.0
 20
361.0
 30
-11.5
 40
2.5
  0
CIRCLE
  5
12B
330
1F
100
AcDbEntity
  8
1
 62
     7
100
AcDbCircle
 10
122.5
 20
82.5
 30
-29.35
 40
4.0
  0
ARC
  5
12C
330
1F
100
AcDbEntity
  8
1
 62
     7
100
AcDbCircle
 10
5.5
 20
-8.0
 30
-400.0
 40
3.0
210
0.0
220
-1.0
230
0.0
100
AcDbArc
 50
90.0
 51
180.0
  0
LINE
  5
12D
330
1F
100
AcDbEntity
  8
1
 62
     7
100
AcDbLine
 10
3.75
 20
315.0
 30
-7.0
 11
3.75
 21
315.0
 31
-163.39582
  0
LINE
  5
12E
330
1F
100
AcDbEntity
  8
1
 62
     7
100
AcDbLine
 10
-9.0
 20
400.0
 30
-10.0
 11
-35.0
 21
400.0
 31
-10.0
  0
LINE
  5
12F
330
1F
100
AcDbEntity
  8
1
 62
     7
100
AcDbLine
 10
24.0
 20
400.0
 30
-5.0
 11
24.0
 21
0.0
 31
-5.0
  0
ARC
  5
130
330
1F
100
AcDbEntity
  8
1
 62
     7
100
AcDbCircle
 10
-24.0
 20
-1.0
 30
0.0
 40
1.0
210
0.0
220
-1.0
230
0.0
100
AcDbArc
 50
90.0
 51
180.0
  0
LINE
  5
131
330
1F
100
AcDbEntity
  8
1
 62
     7
100
AcDbLine
 10
2.5
 20
87.0
 30
-138.39582
 11
2.5
 21
87.0
 31
-122.39582
  0
LINE
  5
132
330
1F
100
AcDbEntity
  8
1
 62
     7
100
AcDbLine
 10
-31.0
 20
410.0
 30
-10.0
 11
-31.0
 21
385.0
 31
-10.0
  0
VIEWPORT
  5
2A
330
1B
100
AcDbEntity
 67
     1
  8
0
100
AcDbViewport
 10
4.8
 20
4.02
 30
0.0
 40
9.6
 41
8.04
 68
     1
 69
     1
 12
2.8
 22
4.02
 13
0.0
 23
0.0
 14
0.5
 24
0.5
 15
0.5
 25
0.5
 16
0.0
 26
0.0
 36
1.0
 17
0.0
 27
0.0
 37
0.0
 42
50.0
 43
0.0
 44
0.0
 45
8.04
 50
0.0
 51
0.0
 72
   100
 90
    32800
  1

281
     0
 71
     1
 74
     0
110
0.0
120
0.0
130
0.0
111
1.0
121
0.0
131
0.0
112
0.0
122
1.0
132
0.0
 79
     0
146
0.0
  0
ENDSEC
  0
SECTION
  2
OBJECTS
  0
DICTIONARY
  5
C
330
0
100
AcDbDictionary
281
     1
  3
ACAD_GROUP
350
D
  3
ACAD_LAYOUT
350
1A
  3
ACAD_MLINESTYLE
350
17
  3
ACAD_PLOTSETTINGS
350
19
  3
ACAD_PLOTSTYLENAME
350
E
  0
DICTIONARY
  5
D
102
{ACAD_REACTORS
330
C
102
}
330
C
100
AcDbDictionary
281
     1
  0
DICTIONARY
  5
1A
102
{ACAD_REACTORS
330
C
102
}
330
C
100
AcDbDictionary
281
     1
  3
Layout1
350
1E
  3
Layout2
350
26
  3
Model
350
22
  0
DICTIONARY
  5
17
102
{ACAD_REACTORS
330
C
102
}
330
C
100
AcDbDictionary
281
     1
  3
Standard
350
18
  0
DICTIONARY
  5
19
102
{ACAD_REACTORS
330
C
102
}
330
C
100
AcDbDictionary
281
     1
  0
ACDBDICTIONARYWDFLT
  5
E
102
{ACAD_REACTORS
330
C
102
}
330
C
100
AcDbDictionary
281
     1
  3
Normal
350
F
100
AcDbDictionaryWithDefault
340
F
  0
LAYOUT
  5
1E
102
{ACAD_REACTORS
330
1A
102
}
330
1A
100
AcDbPlotSettings
  1

  2
DWF Classic.pc3
  4
ANSI_A_(8.50_x_11.00_Inches)
  6

 40
5.79375
 41
17.793751
 42
5.793747
 43
17.793762
 44
215.899994
 45
279.399994
 46
0.0
 47
0.0
 48
0.0
 49
0.0
140
0.0
141
0.0
142
1.0
143
1.0
 70
   688
 72
     0
 73
     1
 74
     5
  7

 75
    16
147
1.0
148
0.0
149
0.0
100
AcDbLayout
  1
Layout1
 70
     1
 71
     1
 10
0.0
 20
0.0
 11
9.6
 21
8.04
 12
0.0
 22
0.0
 32
0.0
 14
-0.5
 24
-0.5
 34
-0.5
 15
5.0
 25
5.0
 35
5.0
146
0.0
 13
0.0
 23
0.0
 33
0.0
 16
1.0
 26
0.0
 36
0.0
 17
0.0
 27
1.0
 37
0.0
 76
     0
330
1B
331
2A
  0
LAYOUT
  5
26
102
{ACAD_REACTORS
330
1A
102
}
330
1A
100
AcDbPlotSettings
  1

  2

  4

  6

 40
0.0
 41
0.0
 42
0.0
 43
0.0
 44
0.0
 45
0.0
 46
0.0
 47
0.0
 48
0.0
 49
0.0
140
0.0
141
0.0
142
1.0
143
1.0
 70
   688
 72
     0
 73
     0
 74
     5
  7

 75
    16
147
1.0
148
0.0
149
0.0
100
AcDbLayout
  1
Layout2
 70
     1
 71
     2
 10
0.0
 20
0.0
 11
0.0
 21
0.0
 12
0.0
 22
0.0
 32
0.0
 14
0.0
 24
0.0
 34
0.0
 15
0.0
 25
0.0
 35
0.0
146
0.0
 13
0.0
 23
0.0
 33
0.0
 16
1.0
 26
0.0
 36
0.0
 17
0.0
 27
1.0
 37
0.0
 76
     0
330
23
  0
LAYOUT
  5
22
102
{ACAD_REACTORS
330
1A
102
}
330
1A
100
AcDbPlotSettings
  1

  2

  4

  6

 40
0.0
 41
0.0
 42
0.0
 43
0.0
 44
0.0
 45
0.0
 46
0.0
 47
0.0
 48
0.0
 49
0.0
140
0.0
141
0.0
142
1.0
143
1.0
 70
  1712
 72
     0
 73
     0
 74
     0
  7

 75
     0
147
1.0
148
0.0
149
0.0
100
AcDbLayout
  1
Model
 70
     1
 71
     0
 10
-0.5
 20
-0.5
 11
5.0
 21
5.0
 12
0.0
 22
0.0
 32
0.0
 14
-0.5
 24
-0.5
 34
-0.5
 15
5.0
 25
5.0
 35
5.0
146
0.0
 13
0.0
 23
0.0
 33
0.0
 16
1.0
 26
0.0
 36
0.0
 17
0.0
 27
1.0
 37
0.0
 76
     0
330
1F
  0
MLINESTYLE
  5
18
102
{ACAD_REACTORS
330
17
102
}
330
17
100
AcDbMlineStyle
  2
Standard
 70
     0
  3

 62
   256
 51
90.0
 52
90.0
 71
     2
 49
0.5
 62
   256
  6
BYLAYER
 49
-0.5
 62
   256
  6
BYLAYER
  0
ACDBPLACEHOLDER
  5
F
102
{ACAD_REACTORS
330
E
102
}
330
E
  0
ENDSEC
  0
EOF
